ISO-10303-21;
HEADER;
FILE_DESCRIPTION (( 'STEP AP203' ),
    '1' );
FILE_NAME ('966152.step',
    '2021-11-16T15:45:14',
    ( '' ),
    ( '' ),
    'SwSTEP 2.0',
    'SolidWorks 2019',
    '' );
FILE_SCHEMA (( 'CONFIG_CONTROL_DESIGN' ));
ENDSEC;

DATA;
#1 = ORIENTED_EDGE ( 'NONE', *, *, #87, .F. ) ;
#2 = PRODUCT ( '966152', '966152', '', ( #218 ) ) ;
#3 = ORIENTED_EDGE ( 'NONE', *, *, #14, .T. ) ;
#4 = AXIS2_PLACEMENT_3D ( 'NONE', #123, #20, #29 ) ;
#5 = CC_DESIGN_APPROVAL ( #41, ( #221 ) ) ;
#6 = CARTESIAN_POINT ( 'NONE',  ( 2.444036937190193349E-14, 1.124819836996383216E-32, 7.000000000000000000 ) ) ;
#7 = PERSON_AND_ORGANIZATION ( #30, #116 ) ;
#8 = APPLICATION_PROTOCOL_DEFINITION ( 'international standard', 'config_control_design', 1994, #34 ) ;
#9 = FACE_OUTER_BOUND ( 'NONE', #171, .T. ) ;
#10 = APPLICATION_PROTOCOL_DEFINITION ( 'international standard', 'config_control_design', 1994, #115 ) ;
#11 = ADVANCED_FACE ( 'NONE', ( #69, #211 ), #154, .T. ) ;
#12 = CC_DESIGN_PERSON_AND_ORGANIZATION_ASSIGNMENT ( #176, #72, ( #168 ) ) ;
#13 = DATE_TIME_ROLE ( 'classification_date' ) ;
#14 = EDGE_CURVE ( 'NONE', #216, #216, #178, .T. ) ;
#15 = EDGE_LOOP ( 'NONE', ( #100 ) ) ;
#16 = AXIS2_PLACEMENT_3D ( 'NONE', #74, #18, #91 ) ;
#17 = FACE_OUTER_BOUND ( 'NONE', #51, .T. ) ;
#18 = DIRECTION ( 'NONE',  ( 3.491481338843133355E-15, -1.227517819005651059E-16, 1.000000000000000000 ) ) ;
#19 = ORIENTED_EDGE ( 'NONE', *, *, #134, .T. ) ;
#20 = DIRECTION ( 'NONE',  ( -3.491481338843133355E-15, 1.224646799147353207E-16, -1.000000000000000000 ) ) ;
#21 = DIRECTION ( 'NONE',  ( 0.0000000000000000000, 1.000000000000000000, 0.0000000000000000000 ) ) ;
#22 = ADVANCED_FACE ( 'NONE', ( #199 ), #155, .F. ) ;
#23 = CIRCLE ( 'NONE', #208, 1.450000000000000844 ) ;
#24 = FACE_OUTER_BOUND ( 'NONE', #15, .T. ) ;
#25 = CLOSED_SHELL ( 'NONE', ( #11, #184, #223, #52, #127 ) ) ;
#26 = APPROVAL_STATUS ( 'not_yet_approved' ) ;
#27 = DIRECTION ( 'NONE',  ( 3.491481338843133355E-15, -1.227517819005651059E-16, 1.000000000000000000 ) ) ;
#28 = COORDINATED_UNIVERSAL_TIME_OFFSET ( 1, 0, .AHEAD. ) ;
#29 = DIRECTION ( 'NONE',  ( 0.0000000000000000000, 1.000000000000000000, 0.0000000000000000000 ) ) ;
#30 = PERSON ( 'UNSPECIFIED', 'UNSPECIFIED', 'UNSPECIFIED', ('UNSPECIFIED'), ('UNSPECIFIED'), ('UNSPECIFIED') ) ;
#31 = COORDINATED_UNIVERSAL_TIME_OFFSET ( 1, 0, .AHEAD. ) ;
#32 = CC_DESIGN_DATE_AND_TIME_ASSIGNMENT ( #97, #13, ( #221 ) ) ;
#33 = DESIGN_CONTEXT ( 'detailed design', #115, 'design' ) ;
#34 = APPLICATION_CONTEXT ( 'configuration controlled 3d designs of mechanical parts and assemblies' ) ;
#35 = ORIENTED_EDGE ( 'NONE', *, *, #151, .T. ) ;
#36 = FACE_OUTER_BOUND ( 'NONE', #187, .T. ) ;
#37 = DIRECTION ( 'NONE',  ( 0.0000000000000000000, 1.000000000000000000, 0.0000000000000000000 ) ) ;
#38 = DIRECTION ( 'NONE',  ( 4.275831445896958607E-31, 1.000000000000000000, 1.224646799147353207E-16 ) ) ;
#39 = DIRECTION ( 'NONE',  ( 3.491481338843133355E-15, -1.227517819005651059E-16, 1.000000000000000000 ) ) ;
#40 = CARTESIAN_POINT ( 'NONE',  ( 0.0000000000000000000, 0.0000000000000000000, 0.0000000000000000000 ) ) ;
#41 = APPROVAL ( #185, 'UNSPECIFIED' ) ;
#42 = COORDINATED_UNIVERSAL_TIME_OFFSET ( 1, 0, .AHEAD. ) ;
#43 = CARTESIAN_POINT ( 'NONE',  ( 1.326762908760390170E-13, -4.653657836759941152E-15, 37.99999999999999289 ) ) ;
#44 = COORDINATED_UNIVERSAL_TIME_OFFSET ( 1, 0, .AHEAD. ) ;
#45 = ADVANCED_FACE ( 'NONE', ( #68 ), #56, .T. ) ;
#46 = ORIENTED_EDGE ( 'NONE', *, *, #167, .F. ) ;
#47 = MANIFOLD_SOLID_BREP ( 'Corps-Déplacer/Copier1[1]', #25 ) ;
#48 = AXIS2_PLACEMENT_3D ( 'NONE', #61, #109, #38 ) ;
#49 =( GEOMETRIC_REPRESENTATION_CONTEXT ( 3 ) GLOBAL_UNCERTAINTY_ASSIGNED_CONTEXT ( ( #64 ) ) GLOBAL_UNIT_ASSIGNED_CONTEXT ( ( #125, #93, #198 ) ) REPRESENTATION_CONTEXT ( 'NONE', 'WORKASPACE' ) );
#50 = EDGE_LOOP ( 'NONE', ( #133 ) ) ;
#51 = EDGE_LOOP ( 'NONE', ( #67 ) ) ;
#52 = ADVANCED_FACE ( 'NONE', ( #36, #9 ), #76, .F. ) ;
#53 = DIRECTION ( 'NONE',  ( -3.491481338843133355E-15, 1.224646799147353207E-16, -1.000000000000000000 ) ) ;
#54 = PLANE ( 'NONE',  #189 ) ;
#55 = VERTEX_POINT ( 'NONE', #57 ) ;
#56 = PLANE ( 'NONE',  #65 ) ;
#57 = CARTESIAN_POINT ( 'NONE',  ( -1.691860413684314386E-30, -1.449999999999999067, -4.845680814221091891E-16 ) ) ;
#58 = SECURITY_CLASSIFICATION_LEVEL ( 'unclassified' ) ;
#59 = DIRECTION ( 'NONE',  ( -3.491481338843133355E-15, 1.224646799147353207E-16, -1.000000000000000000 ) ) ;
#60 = PERSON_AND_ORGANIZATION ( #30, #116 ) ;
#61 = CARTESIAN_POINT ( 'NONE',  ( 1.326762908760390170E-13, 8.998558695971017012E-33, 37.99999999999999289 ) ) ;
#62 = CIRCLE ( 'NONE', #96, 1.499999999999992006 ) ;
#63 = APPROVAL_PERSON_ORGANIZATION ( #183, #41, #165 ) ;
#64 = UNCERTAINTY_MEASURE_WITH_UNIT (LENGTH_MEASURE( 1.000000000000000082E-05 ), #125, 'distance_accuracy_value', 'NONE');
#65 = AXIS2_PLACEMENT_3D ( 'NONE', #6, #126, #140 ) ;
#66 = ORIENTED_EDGE ( 'NONE', *, *, #167, .T. ) ;
#67 = ORIENTED_EDGE ( 'NONE', *, *, #134, .F. ) ;
#68 = FACE_OUTER_BOUND ( 'NONE', #85, .T. ) ;
#69 = FACE_OUTER_BOUND ( 'NONE', #86, .T. ) ;
#70 = DIRECTION ( 'NONE',  ( 1.000000000000000000, 0.0000000000000000000, 0.0000000000000000000 ) ) ;
#71 = CARTESIAN_POINT ( 'NONE',  ( 1.316288464743860707E-13, -4.616918432785519503E-15, 37.69999999999998153 ) ) ;
#72 = PERSON_AND_ORGANIZATION_ROLE ( 'design_supplier' ) ;
#73 = EDGE_CURVE ( 'NONE', #95, #95, #62, .T. ) ;
#74 = CARTESIAN_POINT ( 'NONE',  ( -1.070411357751744940E-30, 1.508391285217705522E-32, -3.065779976662899162E-16 ) ) ;
#75 = CARTESIAN_POINT ( 'NONE',  ( 2.755836190664947546E-14, -1.096208464112076357E-16, 7.893028554974507394 ) ) ;
#76 = TOROIDAL_SURFACE ( 'NONE', #195, 9.449999999999999289, 8.000000000000000000 ) ;
#77 = DATE_AND_TIME ( #92, #188 ) ;
#78 = DIRECTION ( 'NONE',  ( 0.0000000000000000000, 1.000000000000000000, 0.0000000000000000000 ) ) ;
#79 = CALENDAR_DATE ( 2021, 16, 11 ) ;
#80 = PLANE ( 'NONE',  #48 ) ;
#81 = APPROVAL_ROLE ( '' ) ;
#82 = LOCAL_TIME ( 16, 45, 14.00000000000000000, #122 ) ;
#83 = SHAPE_DEFINITION_REPRESENTATION ( #141, #170 ) ;
#84 = CC_DESIGN_PERSON_AND_ORGANIZATION_ASSIGNMENT ( #128, #201, ( #221 ) ) ;
#85 = EDGE_LOOP ( 'NONE', ( #169 ) ) ;
#86 = EDGE_LOOP ( 'NONE', ( #152 ) ) ;
#87 = EDGE_CURVE ( 'NONE', #142, #142, #132, .T. ) ;
#88 = EDGE_LOOP ( 'NONE', ( #153 ) ) ;
#89 = AXIS2_PLACEMENT_3D ( 'NONE', #210, #90, #108 ) ;
#90 = DIRECTION ( 'NONE',  ( 3.491481338843133355E-15, -1.224646799147353207E-16, 1.000000000000000000 ) ) ;
#91 = DIRECTION ( 'NONE',  ( -4.285855558155653280E-31, -1.000000000000000000, -1.227517819005651059E-16 ) ) ;
#92 = CALENDAR_DATE ( 2021, 16, 11 ) ;
#93 =( NAMED_UNIT ( * ) PLANE_ANGLE_UNIT ( ) SI_UNIT ( $, .RADIAN. ) );
#94 = APPROVAL_DATE_TIME ( #146, #112 ) ;
#95 = VERTEX_POINT ( 'NONE', #131 ) ;
#96 = AXIS2_PLACEMENT_3D ( 'NONE', #71, #119, #37 ) ;
#97 = DATE_AND_TIME ( #179, #120 ) ;
#98 = CALENDAR_DATE ( 2021, 16, 11 ) ;
#99 = AXIS2_PLACEMENT_3D ( 'NONE', #75, #172, #21 ) ;
#100 = ORIENTED_EDGE ( 'NONE', *, *, #151, .F. ) ;
#101 = CC_DESIGN_PERSON_AND_ORGANIZATION_ASSIGNMENT ( #158, #161, ( #2 ) ) ;
#102 = DIRECTION ( 'NONE',  ( 3.491481338843133355E-15, -1.227517819005651059E-16, 1.000000000000000000 ) ) ;
#103 = DATE_AND_TIME ( #194, #82 ) ;
#104 = CC_DESIGN_SECURITY_CLASSIFICATION ( #221, ( #168 ) ) ;
#105 = DIRECTION ( 'NONE',  ( 0.0000000000000000000, -1.000000000000000000, 0.0000000000000000000 ) ) ;
#106 = APPROVAL_PERSON_ORGANIZATION ( #60, #205, #81 ) ;
#107 = CARTESIAN_POINT ( 'NONE',  ( -6.413731847436034514E-31, 0.0000000000000000000, -1.836965810494968570E-16 ) ) ;
#108 = DIRECTION ( 'NONE',  ( -4.275831445896958607E-31, -1.000000000000000000, -1.224646799147353207E-16 ) ) ;
#109 = DIRECTION ( 'NONE',  ( -3.491481338843133355E-15, 1.224646799147353207E-16, -1.000000000000000000 ) ) ;
#110 = CIRCLE ( 'NONE', #4, 1.199999999999992184 ) ;
#111 = PERSON_AND_ORGANIZATION_ROLE ( 'creator' ) ;
#112 = APPROVAL ( #26, 'UNSPECIFIED' ) ;
#113 = AXIS2_PLACEMENT_3D ( 'NONE', #43, #59, #78 ) ;
#114 = AXIS2_PLACEMENT_3D ( 'NONE', #107, #27, #163 ) ;
#115 = APPLICATION_CONTEXT ( 'configuration controlled 3d designs of mechanical parts and assemblies' ) ;
#116 = ORGANIZATION ( 'UNSPECIFIED', 'UNSPECIFIED', '' ) ;
#117 = LOCAL_TIME ( 16, 45, 14.00000000000000000, #42 ) ;
#118 = CC_DESIGN_DATE_AND_TIME_ASSIGNMENT ( #77, #173, ( #207 ) ) ;
#119 = DIRECTION ( 'NONE',  ( -3.491481338843133355E-15, 1.224646799147353207E-16, -1.000000000000000000 ) ) ;
#120 = LOCAL_TIME ( 16, 45, 14.00000000000000000, #44 ) ;
#121 = DIRECTION ( 'NONE',  ( 3.491481338843133355E-15, -1.227517819005651059E-16, 1.000000000000000000 ) ) ;
#122 = COORDINATED_UNIVERSAL_TIME_OFFSET ( 1, 0, .AHEAD. ) ;
#123 = CARTESIAN_POINT ( 'NONE',  ( 1.326762908760390170E-13, -4.653657836759941152E-15, 37.99999999999999289 ) ) ;
#124 = DIRECTION ( 'NONE',  ( 3.491481338843133355E-15, -1.224646799147353207E-16, 1.000000000000000000 ) ) ;
#125 =( LENGTH_UNIT ( ) NAMED_UNIT ( * ) SI_UNIT ( .MILLI., .METRE. ) );
#126 = DIRECTION ( 'NONE',  ( 3.491481338843133355E-15, -1.224646799147353207E-16, 1.000000000000000000 ) ) ;
#127 = ADVANCED_FACE ( 'NONE', ( #17 ), #54, .F. ) ;
#128 = PERSON_AND_ORGANIZATION ( #30, #116 ) ;
#129 = DIRECTION ( 'NONE',  ( 0.0000000000000000000, 0.0000000000000000000, 1.000000000000000000 ) ) ;
#130 = APPROVAL_DATE_TIME ( #103, #205 ) ;
#131 = CARTESIAN_POINT ( 'NONE',  ( 1.316288464743860707E-13, 1.499999999999987566, 37.69999999999998153 ) ) ;
#132 = CIRCLE ( 'NONE', #162, 1.450000000000000844 ) ;
#133 = ORIENTED_EDGE ( 'NONE', *, *, #14, .F. ) ;
#134 = EDGE_CURVE ( 'NONE', #196, #196, #23, .T. ) ;
#135 = EDGE_LOOP ( 'NONE', ( #35 ) ) ;
#136 = CARTESIAN_POINT ( 'NONE',  ( 2.444036937190193033E-14, -8.592624733039555931E-16, 6.999999999999999112 ) ) ;
#137 = EDGE_LOOP ( 'NONE', ( #1 ) ) ;
#138 = CC_DESIGN_PERSON_AND_ORGANIZATION_ASSIGNMENT ( #217, #111, ( #207 ) ) ;
#139 = FACE_OUTER_BOUND ( 'NONE', #137, .T. ) ;
#140 = DIRECTION ( 'NONE',  ( -4.275831445896958607E-31, -1.000000000000000000, -1.224646799147353207E-16 ) ) ;
#141 = PRODUCT_DEFINITION_SHAPE ( 'NONE', 'NONE',  #207 ) ;
#142 = VERTEX_POINT ( 'NONE', #144 ) ;
#143 = CARTESIAN_POINT ( 'NONE',  ( 2.444036937190193349E-14, 1.124819836996383216E-32, 7.000000000000000000 ) ) ;
#144 = CARTESIAN_POINT ( 'NONE',  ( 2.444036937190193033E-14, -1.450000000000001732, 6.999999999999999112 ) ) ;
#145 = PRODUCT_RELATED_PRODUCT_CATEGORY ( 'detail', '', ( #2 ) ) ;
#146 = DATE_AND_TIME ( #79, #117 ) ;
#147 = CARTESIAN_POINT ( 'NONE',  ( 0.0000000000000000000, 0.0000000000000000000, 0.0000000000000000000 ) ) ;
#148 = DATE_AND_TIME ( #98, #156 ) ;
#149 = CC_DESIGN_APPROVAL ( #112, ( #168 ) ) ;
#150 = APPROVAL_PERSON_ORGANIZATION ( #203, #112, #157 ) ;
#151 = EDGE_CURVE ( 'NONE', #219, #219, #110, .T. ) ;
#152 = ORIENTED_EDGE ( 'NONE', *, *, #73, .T. ) ;
#153 = ORIENTED_EDGE ( 'NONE', *, *, #73, .F. ) ;
#154 = CYLINDRICAL_SURFACE ( 'NONE', #164, 1.499999999999990008 ) ;
#155 = PLANE ( 'NONE',  #89 ) ;
#156 = LOCAL_TIME ( 16, 45, 14.00000000000000000, #31 ) ;
#157 = APPROVAL_ROLE ( '' ) ;
#158 = PERSON_AND_ORGANIZATION ( #30, #116 ) ;
#159 = DIRECTION ( 'NONE',  ( 0.0000000000000000000, -1.000000000000000000, 0.0000000000000000000 ) ) ;
#160 = ADVANCED_FACE ( 'NONE', ( #180, #139 ), #214, .T. ) ;
#161 = PERSON_AND_ORGANIZATION_ROLE ( 'design_owner' ) ;
#162 = AXIS2_PLACEMENT_3D ( 'NONE', #213, #102, #105 ) ;
#163 = DIRECTION ( 'NONE',  ( -4.285855558155652404E-31, -1.000000000000000000, -1.227517819005651059E-16 ) ) ;
#164 = AXIS2_PLACEMENT_3D ( 'NONE', #40, #53, #191 ) ;
#165 = APPROVAL_ROLE ( '' ) ;
#166 = APPROVAL_DATE_TIME ( #148, #41 ) ;
#167 = EDGE_CURVE ( 'NONE', #55, #55, #220, .T. ) ;
#168 = PRODUCT_DEFINITION_FORMATION_WITH_SPECIFIED_SOURCE ( 'ANY', '', #2, .NOT_KNOWN. ) ;
#169 = ORIENTED_EDGE ( 'NONE', *, *, #87, .T. ) ;
#170 = ADVANCED_BREP_SHAPE_REPRESENTATION ( '966152', ( #47, #193, #181 ), #49 ) ;
#171 = EDGE_LOOP ( 'NONE', ( #3 ) ) ;
#172 = DIRECTION ( 'NONE',  ( -3.491481338843133355E-15, 1.227517819005651059E-16, -1.000000000000000000 ) ) ;
#173 = DATE_TIME_ROLE ( 'creation_date' ) ;
#174 = CARTESIAN_POINT ( 'NONE',  ( 2.444036937190193033E-14, 0.0000000000000000000, 6.999999999999999112 ) ) ;
#175 = CARTESIAN_POINT ( 'NONE',  ( 2.444036937190193033E-14, -1.450000000000001732, 6.999999999999999112 ) ) ;
#176 = PERSON_AND_ORGANIZATION ( #30, #116 ) ;
#177 = CARTESIAN_POINT ( 'NONE',  ( 2.755836190664947546E-14, 1.499999999999989786, 7.893028554974507394 ) ) ;
#178 = CIRCLE ( 'NONE', #99, 1.499999999999990008 ) ;
#179 = CALENDAR_DATE ( 2021, 16, 11 ) ;
#180 = FACE_OUTER_BOUND ( 'NONE', #206, .T. ) ;
#181 = AXIS2_PLACEMENT_3D ( 'NONE', #147, #129, #70 ) ;
#182 = FACE_OUTER_BOUND ( 'NONE', #88, .T. ) ;
#183 = PERSON_AND_ORGANIZATION ( #30, #116 ) ;
#184 = ADVANCED_FACE ( 'NONE', ( #182, #202 ), #186, .T. ) ;
#185 = APPROVAL_STATUS ( 'not_yet_approved' ) ;
#186 = CONICAL_SURFACE ( 'NONE', #113, 1.199999999999992184, 0.7853981633974338461 ) ;
#187 = EDGE_LOOP ( 'NONE', ( #19 ) ) ;
#188 = LOCAL_TIME ( 16, 45, 14.00000000000000000, #28 ) ;
#189 = AXIS2_PLACEMENT_3D ( 'NONE', #143, #124, #197 ) ;
#190 = EDGE_LOOP ( 'NONE', ( #46 ) ) ;
#191 = DIRECTION ( 'NONE',  ( 4.275831445896959482E-31, 1.000000000000000000, 1.224646799147353207E-16 ) ) ;
#192 = DIRECTION ( 'NONE',  ( -4.346727293177451442E-31, -1.000000000000000000, -1.227517819005651059E-16 ) ) ;
#193 = MANIFOLD_SOLID_BREP ( 'Corps-Déplacer/Copier1[2]', #209 ) ;
#194 = CALENDAR_DATE ( 2021, 16, 11 ) ;
#195 = AXIS2_PLACEMENT_3D ( 'NONE', #174, #121, #192 ) ;
#196 = VERTEX_POINT ( 'NONE', #175 ) ;
#197 = DIRECTION ( 'NONE',  ( -4.275831445896958607E-31, -1.000000000000000000, -1.224646799147353207E-16 ) ) ;
#198 =( NAMED_UNIT ( * ) SI_UNIT ( $, .STERADIAN. ) SOLID_ANGLE_UNIT ( ) );
#199 = FACE_OUTER_BOUND ( 'NONE', #190, .T. ) ;
#200 = APPROVAL_STATUS ( 'not_yet_approved' ) ;
#201 = PERSON_AND_ORGANIZATION_ROLE ( 'classification_officer' ) ;
#202 = FACE_BOUND ( 'NONE', #135, .T. ) ;
#203 = PERSON_AND_ORGANIZATION ( #30, #116 ) ;
#204 = CARTESIAN_POINT ( 'NONE',  ( 1.326762908760390170E-13, 1.199999999999987521, 37.99999999999999289 ) ) ;
#205 = APPROVAL ( #200, 'UNSPECIFIED' ) ;
#206 = EDGE_LOOP ( 'NONE', ( #66 ) ) ;
#207 = PRODUCT_DEFINITION ( 'UNKNOWN', '', #168, #33 ) ;
#208 = AXIS2_PLACEMENT_3D ( 'NONE', #136, #39, #159 ) ;
#209 = CLOSED_SHELL ( 'NONE', ( #45, #160, #22 ) ) ;
#210 = CARTESIAN_POINT ( 'NONE',  ( -2.137917073001454058E-30, 7.498803648657679327E-32, -6.123237862442165323E-16 ) ) ;
#211 = FACE_OUTER_BOUND ( 'NONE', #50, .T. ) ;
#212 = CC_DESIGN_PERSON_AND_ORGANIZATION_ASSIGNMENT ( #7, #215, ( #168 ) ) ;
#213 = CARTESIAN_POINT ( 'NONE',  ( 2.444036937190193033E-14, -8.592624733039555931E-16, 6.999999999999999112 ) ) ;
#214 = CYLINDRICAL_SURFACE ( 'NONE', #114, 1.449999999999999956 ) ;
#215 = PERSON_AND_ORGANIZATION_ROLE ( 'creator' ) ;
#216 = VERTEX_POINT ( 'NONE', #177 ) ;
#217 = PERSON_AND_ORGANIZATION ( #30, #116 ) ;
#218 = MECHANICAL_CONTEXT ( 'NONE', #34, 'mechanical' ) ;
#219 = VERTEX_POINT ( 'NONE', #204 ) ;
#220 = CIRCLE ( 'NONE', #16, 1.449999999999999067 ) ;
#221 = SECURITY_CLASSIFICATION ( '', '', #58 ) ;
#222 = CC_DESIGN_APPROVAL ( #205, ( #207 ) ) ;
#223 = ADVANCED_FACE ( 'NONE', ( #24 ), #80, .F. ) ;
ENDSEC;
END-ISO-10303-21;
