ISO-10303-21;
HEADER;
FILE_DESCRIPTION (( 'STEP AP203' ),
    '1' );
FILE_NAME ('966151.step',
    '2021-11-16T15:45:13',
    ( '' ),
    ( '' ),
    'SwSTEP 2.0',
    'SolidWorks 2019',
    '' );
FILE_SCHEMA (( 'CONFIG_CONTROL_DESIGN' ));
ENDSEC;

DATA;
#1 = CARTESIAN_POINT ( 'NONE',  ( -6.000197781417910738E-31, -1.453882709197869492E-33, -1.718524946607910348E-16 ) ) ;
#2 = APPROVAL_STATUS ( 'not_yet_approved' ) ;
#3 = ORGANIZATION ( 'UNSPECIFIED', 'UNSPECIFIED', '' ) ;
#4 = PERSON_AND_ORGANIZATION ( #8, #3 ) ;
#5 = CARTESIAN_POINT ( 'NONE',  ( 1.326762908760390170E-13, 1.199999999999987521, 37.99999999999999289 ) ) ;
#6 = DIRECTION ( 'NONE',  ( 3.491481338843133355E-15, -1.224646799147353207E-16, 1.000000000000000000 ) ) ;
#7 = DATE_AND_TIME ( #143, #46 ) ;
#8 = PERSON ( 'UNSPECIFIED', 'UNSPECIFIED', 'UNSPECIFIED', ('UNSPECIFIED'), ('UNSPECIFIED'), ('UNSPECIFIED') ) ;
#9 = DIRECTION ( 'NONE',  ( -3.491481338843133355E-15, 1.224646799147353207E-16, -1.000000000000000000 ) ) ;
#10 = APPROVAL ( #116, 'UNSPECIFIED' ) ;
#11 = APPLICATION_PROTOCOL_DEFINITION ( 'international standard', 'config_control_design', 1994, #193 ) ;
#12 = AXIS2_PLACEMENT_3D ( 'NONE', #179, #185, #112 ) ;
#13 = ORIENTED_EDGE ( 'NONE', *, *, #202, .T. ) ;
#14 = ADVANCED_FACE ( 'NONE', ( #66 ), #72, .T. ) ;
#15 = EDGE_LOOP ( 'NONE', ( #102 ) ) ;
#16 = CALENDAR_DATE ( 2021, 16, 11 ) ;
#17 = EDGE_CURVE ( 'NONE', #20, #20, #45, .T. ) ;
#18 = CLOSED_SHELL ( 'NONE', ( #87, #78, #219, #132, #139 ) ) ;
#19 =( GEOMETRIC_REPRESENTATION_CONTEXT ( 3 ) GLOBAL_UNCERTAINTY_ASSIGNED_CONTEXT ( ( #64 ) ) GLOBAL_UNIT_ASSIGNED_CONTEXT ( ( #125, #100, #51 ) ) REPRESENTATION_CONTEXT ( 'NONE', 'WORKASPACE' ) );
#20 = VERTEX_POINT ( 'NONE', #63 ) ;
#21 = SECURITY_CLASSIFICATION_LEVEL ( 'unclassified' ) ;
#22 = CARTESIAN_POINT ( 'NONE',  ( 1.316288464743860707E-13, -4.616918432785519503E-15, 37.69999999999998153 ) ) ;
#23 = CIRCLE ( 'NONE', #56, 1.199999999999992184 ) ;
#24 = CC_DESIGN_PERSON_AND_ORGANIZATION_ASSIGNMENT ( #61, #115, ( #167 ) ) ;
#25 = DIRECTION ( 'NONE',  ( 4.275831445896959482E-31, 1.000000000000000000, 1.224646799147353207E-16 ) ) ;
#26 = AXIS2_PLACEMENT_3D ( 'NONE', #94, #6, #181 ) ;
#27 = CARTESIAN_POINT ( 'NONE',  ( -1.200039556283582148E-30, -1.399999999999999245, -3.437049893215821189E-16 ) ) ;
#28 = CARTESIAN_POINT ( 'NONE',  ( 2.444036937190193033E-14, -1.400000000000000133, 6.999999999999999112 ) ) ;
#29 = LOCAL_TIME ( 16, 45, 13.00000000000000000, #95 ) ;
#30 = EDGE_LOOP ( 'NONE', ( #172 ) ) ;
#31 = EDGE_LOOP ( 'NONE', ( #13 ) ) ;
#32 = CC_DESIGN_APPROVAL ( #10, ( #35 ) ) ;
#33 = FACE_BOUND ( 'NONE', #99, .T. ) ;
#34 = AXIS2_PLACEMENT_3D ( 'NONE', #1, #138, #208 ) ;
#35 = SECURITY_CLASSIFICATION ( '', '', #21 ) ;
#36 = VERTEX_POINT ( 'NONE', #178 ) ;
#37 = PERSON_AND_ORGANIZATION_ROLE ( 'creator' ) ;
#38 = FACE_OUTER_BOUND ( 'NONE', #15, .T. ) ;
#39 = PERSON_AND_ORGANIZATION ( #8, #3 ) ;
#40 = PLANE ( 'NONE',  #194 ) ;
#41 = DESIGN_CONTEXT ( 'detailed design', #191, 'design' ) ;
#42 = CARTESIAN_POINT ( 'NONE',  ( -6.413731847436034514E-31, 0.0000000000000000000, -1.836965810494968570E-16 ) ) ;
#43 = PLANE ( 'NONE',  #26 ) ;
#44 = APPROVAL_DATE_TIME ( #7, #147 ) ;
#45 = CIRCLE ( 'NONE', #140, 1.399999999999999245 ) ;
#46 = LOCAL_TIME ( 16, 45, 13.00000000000000000, #152 ) ;
#47 = ORIENTED_EDGE ( 'NONE', *, *, #49, .F. ) ;
#48 = DIRECTION ( 'NONE',  ( 0.0000000000000000000, 0.0000000000000000000, 1.000000000000000000 ) ) ;
#49 = EDGE_CURVE ( 'NONE', #128, #128, #145, .T. ) ;
#50 = EDGE_LOOP ( 'NONE', ( #71 ) ) ;
#51 =( NAMED_UNIT ( * ) SI_UNIT ( $, .STERADIAN. ) SOLID_ANGLE_UNIT ( ) );
#52 = EDGE_LOOP ( 'NONE', ( #136 ) ) ;
#53 = FACE_OUTER_BOUND ( 'NONE', #151, .T. ) ;
#54 = COORDINATED_UNIVERSAL_TIME_OFFSET ( 1, 0, .AHEAD. ) ;
#55 = APPROVAL_DATE_TIME ( #86, #81 ) ;
#56 = AXIS2_PLACEMENT_3D ( 'NONE', #142, #90, #79 ) ;
#57 = CIRCLE ( 'NONE', #183, 1.399999999999999245 ) ;
#58 = CARTESIAN_POINT ( 'NONE',  ( 2.884295982341878475E-14, 1.499999999999989786, 8.260952021291801728 ) ) ;
#59 = CIRCLE ( 'NONE', #88, 1.499999999999992006 ) ;
#60 = DIRECTION ( 'NONE',  ( 0.0000000000000000000, -1.000000000000000000, 0.0000000000000000000 ) ) ;
#61 = PERSON_AND_ORGANIZATION ( #8, #3 ) ;
#62 = FACE_OUTER_BOUND ( 'NONE', #119, .T. ) ;
#63 = CARTESIAN_POINT ( 'NONE',  ( 2.444036937190193033E-14, -1.400000000000000133, 6.999999999999999112 ) ) ;
#64 = UNCERTAINTY_MEASURE_WITH_UNIT (LENGTH_MEASURE( 1.000000000000000082E-05 ), #125, 'distance_accuracy_value', 'NONE');
#65 = DIRECTION ( 'NONE',  ( 3.491481338843133355E-15, -1.227517819005651059E-16, 1.000000000000000000 ) ) ;
#66 = FACE_OUTER_BOUND ( 'NONE', #118, .T. ) ;
#67 = COORDINATED_UNIVERSAL_TIME_OFFSET ( 1, 0, .AHEAD. ) ;
#68 = ORIENTED_EDGE ( 'NONE', *, *, #162, .F. ) ;
#69 = AXIS2_PLACEMENT_3D ( 'NONE', #122, #107, #126 ) ;
#70 = CC_DESIGN_SECURITY_CLASSIFICATION ( #35, ( #167 ) ) ;
#71 = ORIENTED_EDGE ( 'NONE', *, *, #17, .T. ) ;
#72 = PLANE ( 'NONE',  #103 ) ;
#73 = CALENDAR_DATE ( 2021, 16, 11 ) ;
#74 = CARTESIAN_POINT ( 'NONE',  ( 2.444036937190193033E-14, -8.592624733039555931E-16, 6.999999999999999112 ) ) ;
#75 = CIRCLE ( 'NONE', #120, 1.499999999999990008 ) ;
#76 = PERSON_AND_ORGANIZATION ( #8, #3 ) ;
#77 = DIRECTION ( 'NONE',  ( 3.491481338843133355E-15, -1.224646799147353207E-16, 1.000000000000000000 ) ) ;
#78 = ADVANCED_FACE ( 'NONE', ( #53, #33 ), #123, .T. ) ;
#79 = DIRECTION ( 'NONE',  ( 0.0000000000000000000, 1.000000000000000000, 0.0000000000000000000 ) ) ;
#80 = CARTESIAN_POINT ( 'NONE',  ( -2.137917073001454058E-30, 7.498803648657679327E-32, -6.123237862442165323E-16 ) ) ;
#81 = APPROVAL ( #2, 'UNSPECIFIED' ) ;
#82 = LOCAL_TIME ( 16, 45, 13.00000000000000000, #168 ) ;
#83 = CC_DESIGN_PERSON_AND_ORGANIZATION_ASSIGNMENT ( #104, #173, ( #158 ) ) ;
#84 = APPROVAL_ROLE ( '' ) ;
#85 = DIRECTION ( 'NONE',  ( 0.0000000000000000000, -1.000000000000000000, 0.0000000000000000000 ) ) ;
#86 = DATE_AND_TIME ( #16, #135 ) ;
#87 = ADVANCED_FACE ( 'NONE', ( #163, #62 ), #184, .T. ) ;
#88 = AXIS2_PLACEMENT_3D ( 'NONE', #22, #214, #130 ) ;
#89 = MANIFOLD_SOLID_BREP ( 'Corps-Déplacer/Copier1[1]', #18 ) ;
#90 = DIRECTION ( 'NONE',  ( -3.491481338843133355E-15, 1.224646799147353207E-16, -1.000000000000000000 ) ) ;
#91 = PERSON_AND_ORGANIZATION ( #8, #3 ) ;
#92 = CYLINDRICAL_SURFACE ( 'NONE', #154, 1.399999999999999245 ) ;
#93 = APPROVAL_PERSON_ORGANIZATION ( #190, #10, #84 ) ;
#94 = CARTESIAN_POINT ( 'NONE',  ( 2.444036937190193349E-14, 1.124819836996383216E-32, 7.000000000000000000 ) ) ;
#95 = COORDINATED_UNIVERSAL_TIME_OFFSET ( 1, 0, .AHEAD. ) ;
#96 = VERTEX_POINT ( 'NONE', #5 ) ;
#97 = LOCAL_TIME ( 16, 45, 13.00000000000000000, #67 ) ;
#98 = APPROVAL_ROLE ( '' ) ;
#99 = EDGE_LOOP ( 'NONE', ( #222 ) ) ;
#100 =( NAMED_UNIT ( * ) PLANE_ANGLE_UNIT ( ) SI_UNIT ( $, .RADIAN. ) );
#101 = SHAPE_DEFINITION_REPRESENTATION ( #212, #213 ) ;
#102 = ORIENTED_EDGE ( 'NONE', *, *, #49, .T. ) ;
#103 = AXIS2_PLACEMENT_3D ( 'NONE', #137, #131, #175 ) ;
#104 = PERSON_AND_ORGANIZATION ( #8, #3 ) ;
#105 = DATE_AND_TIME ( #133, #97 ) ;
#106 = EDGE_LOOP ( 'NONE', ( #68 ) ) ;
#107 = DIRECTION ( 'NONE',  ( -3.491481338843133355E-15, 1.224646799147353207E-16, -1.000000000000000000 ) ) ;
#108 = CLOSED_SHELL ( 'NONE', ( #14, #159, #187 ) ) ;
#109 = CC_DESIGN_PERSON_AND_ORGANIZATION_ASSIGNMENT ( #91, #180, ( #35 ) ) ;
#110 = CARTESIAN_POINT ( 'NONE',  ( 0.0000000000000000000, 0.0000000000000000000, 0.0000000000000000000 ) ) ;
#111 = DIRECTION ( 'NONE',  ( 4.275831445896958607E-31, 1.000000000000000000, 1.224646799147353207E-16 ) ) ;
#112 = DIRECTION ( 'NONE',  ( -4.346902211956250045E-31, -1.000000000000000000, -1.227517819005651059E-16 ) ) ;
#113 = PLANE ( 'NONE',  #182 ) ;
#114 = DIRECTION ( 'NONE',  ( -3.491481338843133355E-15, 1.227517819005651059E-16, -1.000000000000000000 ) ) ;
#115 = PERSON_AND_ORGANIZATION_ROLE ( 'creator' ) ;
#116 = APPROVAL_STATUS ( 'not_yet_approved' ) ;
#117 = DIRECTION ( 'NONE',  ( 1.000000000000000000, 0.0000000000000000000, 0.0000000000000000000 ) ) ;
#118 = EDGE_LOOP ( 'NONE', ( #189 ) ) ;
#119 = EDGE_LOOP ( 'NONE', ( #205 ) ) ;
#120 = AXIS2_PLACEMENT_3D ( 'NONE', #165, #114, #146 ) ;
#121 = PRODUCT_DEFINITION ( 'UNKNOWN', '', #167, #41 ) ;
#122 = CARTESIAN_POINT ( 'NONE',  ( 1.326762908760390170E-13, -4.653657836759941152E-15, 37.99999999999999289 ) ) ;
#123 = CONICAL_SURFACE ( 'NONE', #69, 1.199999999999992184, 0.7853981633974338461 ) ;
#124 = DIRECTION ( 'NONE',  ( -3.491481338843133355E-15, 1.224646799147353207E-16, -1.000000000000000000 ) ) ;
#125 =( LENGTH_UNIT ( ) NAMED_UNIT ( * ) SI_UNIT ( .MILLI., .METRE. ) );
#126 = DIRECTION ( 'NONE',  ( 0.0000000000000000000, 1.000000000000000000, 0.0000000000000000000 ) ) ;
#127 = CC_DESIGN_PERSON_AND_ORGANIZATION_ASSIGNMENT ( #39, #218, ( #167 ) ) ;
#128 = VERTEX_POINT ( 'NONE', #27 ) ;
#129 = CC_DESIGN_APPROVAL ( #147, ( #167 ) ) ;
#130 = DIRECTION ( 'NONE',  ( 0.0000000000000000000, 1.000000000000000000, 0.0000000000000000000 ) ) ;
#131 = DIRECTION ( 'NONE',  ( 3.491481338843133355E-15, -1.224646799147353207E-16, 1.000000000000000000 ) ) ;
#132 = ADVANCED_FACE ( 'NONE', ( #197, #198 ), #176, .F. ) ;
#133 = CALENDAR_DATE ( 2021, 16, 11 ) ;
#134 = CALENDAR_DATE ( 2021, 16, 11 ) ;
#135 = LOCAL_TIME ( 16, 45, 13.00000000000000000, #54 ) ;
#136 = ORIENTED_EDGE ( 'NONE', *, *, #141, .F. ) ;
#137 = CARTESIAN_POINT ( 'NONE',  ( 2.444036937190193349E-14, 1.124819836996383216E-32, 7.000000000000000000 ) ) ;
#138 = DIRECTION ( 'NONE',  ( 3.491481338843133355E-15, -1.227517819005651059E-16, 1.000000000000000000 ) ) ;
#139 = ADVANCED_FACE ( 'NONE', ( #144 ), #43, .F. ) ;
#140 = AXIS2_PLACEMENT_3D ( 'NONE', #74, #157, #85 ) ;
#141 = EDGE_CURVE ( 'NONE', #200, #200, #57, .T. ) ;
#142 = CARTESIAN_POINT ( 'NONE',  ( 1.326762908760390170E-13, -4.653657836759941152E-15, 37.99999999999999289 ) ) ;
#143 = CALENDAR_DATE ( 2021, 16, 11 ) ;
#144 = FACE_OUTER_BOUND ( 'NONE', #30, .T. ) ;
#145 = CIRCLE ( 'NONE', #34, 1.399999999999999245 ) ;
#146 = DIRECTION ( 'NONE',  ( 0.0000000000000000000, 1.000000000000000000, 0.0000000000000000000 ) ) ;
#147 = APPROVAL ( #161, 'UNSPECIFIED' ) ;
#148 = FACE_OUTER_BOUND ( 'NONE', #106, .T. ) ;
#149 = DIRECTION ( 'NONE',  ( 3.491481338843133355E-15, -1.227517819005651059E-16, 1.000000000000000000 ) ) ;
#150 = AXIS2_PLACEMENT_3D ( 'NONE', #204, #48, #117 ) ;
#151 = EDGE_LOOP ( 'NONE', ( #217 ) ) ;
#152 = COORDINATED_UNIVERSAL_TIME_OFFSET ( 1, 0, .AHEAD. ) ;
#153 = ORIENTED_EDGE ( 'NONE', *, *, #196, .T. ) ;
#154 = AXIS2_PLACEMENT_3D ( 'NONE', #42, #65, #195 ) ;
#155 = PRODUCT_RELATED_PRODUCT_CATEGORY ( 'detail', '', ( #158 ) ) ;
#156 = DATE_AND_TIME ( #134, #29 ) ;
#157 = DIRECTION ( 'NONE',  ( 3.491481338843133355E-15, -1.227517819005651059E-16, 1.000000000000000000 ) ) ;
#158 = PRODUCT ( '966151', '966151', '', ( #188 ) ) ;
#159 = ADVANCED_FACE ( 'NONE', ( #38, #211 ), #92, .T. ) ;
#160 = FACE_OUTER_BOUND ( 'NONE', #206, .T. ) ;
#161 = APPROVAL_STATUS ( 'not_yet_approved' ) ;
#162 = EDGE_CURVE ( 'NONE', #96, #96, #23, .T. ) ;
#163 = FACE_OUTER_BOUND ( 'NONE', #31, .T. ) ;
#164 = AXIS2_PLACEMENT_3D ( 'NONE', #110, #9, #25 ) ;
#165 = CARTESIAN_POINT ( 'NONE',  ( 2.884295982341878475E-14, -1.547841075046880255E-16, 8.260952021291801728 ) ) ;
#166 = VERTEX_POINT ( 'NONE', #58 ) ;
#167 = PRODUCT_DEFINITION_FORMATION_WITH_SPECIFIED_SOURCE ( 'ANY', '', #158, .NOT_KNOWN. ) ;
#168 = COORDINATED_UNIVERSAL_TIME_OFFSET ( 1, 0, .AHEAD. ) ;
#169 = CC_DESIGN_DATE_AND_TIME_ASSIGNMENT ( #220, #221, ( #35 ) ) ;
#170 = APPROVAL_DATE_TIME ( #105, #10 ) ;
#171 = MANIFOLD_SOLID_BREP ( 'Corps-Déplacer/Copier1[2]', #108 ) ;
#172 = ORIENTED_EDGE ( 'NONE', *, *, #17, .F. ) ;
#173 = PERSON_AND_ORGANIZATION_ROLE ( 'design_owner' ) ;
#174 = CC_DESIGN_PERSON_AND_ORGANIZATION_ASSIGNMENT ( #186, #37, ( #121 ) ) ;
#175 = DIRECTION ( 'NONE',  ( -4.275831445896958607E-31, -1.000000000000000000, -1.224646799147353207E-16 ) ) ;
#176 = TOROIDAL_SURFACE ( 'NONE', #12, 9.399999999999998579, 8.000000000000000000 ) ;
#177 = APPROVAL_PERSON_ORGANIZATION ( #76, #81, #192 ) ;
#178 = CARTESIAN_POINT ( 'NONE',  ( 1.316288464743860707E-13, 1.499999999999987566, 37.69999999999998153 ) ) ;
#179 = CARTESIAN_POINT ( 'NONE',  ( 2.444036937190193033E-14, 0.0000000000000000000, 6.999999999999999112 ) ) ;
#180 = PERSON_AND_ORGANIZATION_ROLE ( 'classification_officer' ) ;
#181 = DIRECTION ( 'NONE',  ( -4.275831445896958607E-31, -1.000000000000000000, -1.224646799147353207E-16 ) ) ;
#182 = AXIS2_PLACEMENT_3D ( 'NONE', #80, #77, #216 ) ;
#183 = AXIS2_PLACEMENT_3D ( 'NONE', #199, #149, #60 ) ;
#184 = CYLINDRICAL_SURFACE ( 'NONE', #164, 1.499999999999990008 ) ;
#185 = DIRECTION ( 'NONE',  ( 3.491481338843133355E-15, -1.227517819005651059E-16, 1.000000000000000000 ) ) ;
#186 = PERSON_AND_ORGANIZATION ( #8, #3 ) ;
#187 = ADVANCED_FACE ( 'NONE', ( #160 ), #113, .F. ) ;
#188 = MECHANICAL_CONTEXT ( 'NONE', #193, 'mechanical' ) ;
#189 = ORIENTED_EDGE ( 'NONE', *, *, #141, .T. ) ;
#190 = PERSON_AND_ORGANIZATION ( #8, #3 ) ;
#191 = APPLICATION_CONTEXT ( 'configuration controlled 3d designs of mechanical parts and assemblies' ) ;
#192 = APPROVAL_ROLE ( '' ) ;
#193 = APPLICATION_CONTEXT ( 'configuration controlled 3d designs of mechanical parts and assemblies' ) ;
#194 = AXIS2_PLACEMENT_3D ( 'NONE', #215, #124, #111 ) ;
#195 = DIRECTION ( 'NONE',  ( -4.285855558155653280E-31, -1.000000000000000000, -1.227517819005651059E-16 ) ) ;
#196 = EDGE_CURVE ( 'NONE', #166, #166, #75, .T. ) ;
#197 = FACE_OUTER_BOUND ( 'NONE', #50, .T. ) ;
#198 = FACE_OUTER_BOUND ( 'NONE', #201, .T. ) ;
#199 = CARTESIAN_POINT ( 'NONE',  ( 2.444036937190193033E-14, -8.592624733039555931E-16, 6.999999999999999112 ) ) ;
#200 = VERTEX_POINT ( 'NONE', #28 ) ;
#201 = EDGE_LOOP ( 'NONE', ( #153 ) ) ;
#202 = EDGE_CURVE ( 'NONE', #36, #36, #59, .T. ) ;
#203 = CC_DESIGN_APPROVAL ( #81, ( #121 ) ) ;
#204 = CARTESIAN_POINT ( 'NONE',  ( 0.0000000000000000000, 0.0000000000000000000, 0.0000000000000000000 ) ) ;
#205 = ORIENTED_EDGE ( 'NONE', *, *, #196, .F. ) ;
#206 = EDGE_LOOP ( 'NONE', ( #47 ) ) ;
#207 = APPROVAL_PERSON_ORGANIZATION ( #4, #147, #98 ) ;
#208 = DIRECTION ( 'NONE',  ( -4.285855558155652404E-31, -1.000000000000000000, -1.227517819005651305E-16 ) ) ;
#209 = CC_DESIGN_DATE_AND_TIME_ASSIGNMENT ( #156, #210, ( #121 ) ) ;
#210 = DATE_TIME_ROLE ( 'creation_date' ) ;
#211 = FACE_OUTER_BOUND ( 'NONE', #52, .T. ) ;
#212 = PRODUCT_DEFINITION_SHAPE ( 'NONE', 'NONE',  #121 ) ;
#213 = ADVANCED_BREP_SHAPE_REPRESENTATION ( '966151', ( #89, #171, #150 ), #19 ) ;
#214 = DIRECTION ( 'NONE',  ( -3.491481338843133355E-15, 1.224646799147353207E-16, -1.000000000000000000 ) ) ;
#215 = CARTESIAN_POINT ( 'NONE',  ( 1.326762908760390170E-13, 8.998558695971017012E-33, 37.99999999999999289 ) ) ;
#216 = DIRECTION ( 'NONE',  ( -4.275831445896958607E-31, -1.000000000000000000, -1.224646799147353207E-16 ) ) ;
#217 = ORIENTED_EDGE ( 'NONE', *, *, #202, .F. ) ;
#218 = PERSON_AND_ORGANIZATION_ROLE ( 'design_supplier' ) ;
#219 = ADVANCED_FACE ( 'NONE', ( #148 ), #40, .F. ) ;
#220 = DATE_AND_TIME ( #73, #82 ) ;
#221 = DATE_TIME_ROLE ( 'classification_date' ) ;
#222 = ORIENTED_EDGE ( 'NONE', *, *, #162, .T. ) ;
#223 = APPLICATION_PROTOCOL_DEFINITION ( 'international standard', 'config_control_design', 1994, #191 ) ;
ENDSEC;
END-ISO-10303-21;
