ISO-10303-21;
HEADER;
FILE_DESCRIPTION (( 'STEP AP203' ),
    '1' );
FILE_NAME ('966150.step',
    '2021-11-16T15:45:13',
    ( '' ),
    ( '' ),
    'SwSTEP 2.0',
    'SolidWorks 2019',
    '' );
FILE_SCHEMA (( 'CONFIG_CONTROL_DESIGN' ));
ENDSEC;

DATA;
#1 = SECURITY_CLASSIFICATION ( '', '', #6 ) ;
#2 = CARTESIAN_POINT ( 'NONE',  ( 1.316288464743860707E-13, 1.499999999999987566, 37.69999999999998153 ) ) ;
#3 = COORDINATED_UNIVERSAL_TIME_OFFSET ( 1, 0, .AHEAD. ) ;
#4 = ADVANCED_FACE ( 'NONE', ( #196 ), #41, .F. ) ;
#5 = APPROVAL_ROLE ( '' ) ;
#6 = SECURITY_CLASSIFICATION_LEVEL ( 'unclassified' ) ;
#7 = AXIS2_PLACEMENT_3D ( 'NONE', #91, #162, #215 ) ;
#8 = ORIENTED_EDGE ( 'NONE', *, *, #216, .F. ) ;
#9 = PRODUCT_RELATED_PRODUCT_CATEGORY ( 'detail', '', ( #18 ) ) ;
#10 = CIRCLE ( 'NONE', #24, 1.349999999999999645 ) ;
#11 = CC_DESIGN_APPROVAL ( #144, ( #40 ) ) ;
#12 = ORIENTED_EDGE ( 'NONE', *, *, #54, .F. ) ;
#13 = FACE_OUTER_BOUND ( 'NONE', #25, .T. ) ;
#14 = FACE_OUTER_BOUND ( 'NONE', #146, .T. ) ;
#15 = CARTESIAN_POINT ( 'NONE',  ( 2.356749903719114699E-14, -8.285745278288143290E-16, 6.749999999999999112 ) ) ;
#16 = DIRECTION ( 'NONE',  ( 3.491481338843133355E-15, -1.227517819005651059E-16, 1.000000000000000000 ) ) ;
#17 = DIRECTION ( 'NONE',  ( -3.491481338843133355E-15, 1.224646799147353207E-16, -1.000000000000000000 ) ) ;
#18 = PRODUCT ( '966150', '966150', '', ( #122 ) ) ;
#19 = PERSON_AND_ORGANIZATION ( #108, #22 ) ;
#20 = DATE_AND_TIME ( #119, #147 ) ;
#21 = APPROVAL_ROLE ( '' ) ;
#22 = ORGANIZATION ( 'UNSPECIFIED', 'UNSPECIFIED', '' ) ;
#23 = DATE_AND_TIME ( #178, #183 ) ;
#24 = AXIS2_PLACEMENT_3D ( 'NONE', #79, #205, #165 ) ;
#25 = EDGE_LOOP ( 'NONE', ( #161 ) ) ;
#26 = DIRECTION ( 'NONE',  ( 3.491481338843133355E-15, -1.227517819005651059E-16, 1.000000000000000000 ) ) ;
#27 = DIRECTION ( 'NONE',  ( 0.0000000000000000000, 1.000000000000000000, 0.0000000000000000000 ) ) ;
#28 = CIRCLE ( 'NONE', #82, 1.349999999999999645 ) ;
#29 = DIRECTION ( 'NONE',  ( 0.0000000000000000000, 1.000000000000000000, 0.0000000000000000000 ) ) ;
#30 = APPROVAL_PERSON_ORGANIZATION ( #83, #128, #5 ) ;
#31 = FACE_OUTER_BOUND ( 'NONE', #181, .T. ) ;
#32 = CC_DESIGN_PERSON_AND_ORGANIZATION_ASSIGNMENT ( #19, #53, ( #1 ) ) ;
#33 = CARTESIAN_POINT ( 'NONE',  ( 2.356749903719115015E-14, 1.124819836996383216E-32, 6.750000000000000000 ) ) ;
#34 = CIRCLE ( 'NONE', #133, 1.199999999999992184 ) ;
#35 = DIRECTION ( 'NONE',  ( 1.000000000000000000, 0.0000000000000000000, 0.0000000000000000000 ) ) ;
#36 = PERSON_AND_ORGANIZATION ( #108, #22 ) ;
#37 = DATE_AND_TIME ( #121, #63 ) ;
#38 = AXIS2_PLACEMENT_3D ( 'NONE', #61, #132, #202 ) ;
#39 = ORIENTED_EDGE ( 'NONE', *, *, #103, .T. ) ;
#40 = PRODUCT_DEFINITION ( 'UNKNOWN', '', #157, #112 ) ;
#41 = PLANE ( 'NONE',  #7 ) ;
#42 = MANIFOLD_SOLID_BREP ( 'Corps-Déplacer/Copier1[2]', #78 ) ;
#43 = DIRECTION ( 'NONE',  ( 3.491481338843133355E-15, -1.227517819005651059E-16, 1.000000000000000000 ) ) ;
#44 = CARTESIAN_POINT ( 'NONE',  ( -5.785905003510127023E-31, -2.207282707186068797E-33, -1.657149055657627475E-16 ) ) ;
#45 = CARTESIAN_POINT ( 'NONE',  ( 2.356749903719114699E-14, -1.350000000000000533, 6.749999999999999112 ) ) ;
#46 = ADVANCED_FACE ( 'NONE', ( #58 ), #109, .F. ) ;
#47 = FACE_OUTER_BOUND ( 'NONE', #90, .T. ) ;
#48 = CARTESIAN_POINT ( 'NONE',  ( 2.356749903719114699E-14, -1.350000000000000533, 6.749999999999999112 ) ) ;
#49 = AXIS2_PLACEMENT_3D ( 'NONE', #219, #131, #134 ) ;
#50 = COORDINATED_UNIVERSAL_TIME_OFFSET ( 1, 0, .AHEAD. ) ;
#51 = PERSON_AND_ORGANIZATION_ROLE ( 'creator' ) ;
#52 =( NAMED_UNIT ( * ) SI_UNIT ( $, .STERADIAN. ) SOLID_ANGLE_UNIT ( ) );
#53 = PERSON_AND_ORGANIZATION_ROLE ( 'classification_officer' ) ;
#54 = EDGE_CURVE ( 'NONE', #184, #184, #107, .T. ) ;
#55 = CC_DESIGN_APPROVAL ( #179, ( #1 ) ) ;
#56 = ADVANCED_FACE ( 'NONE', ( #73, #185 ), #170, .T. ) ;
#57 = ORIENTED_EDGE ( 'NONE', *, *, #120, .F. ) ;
#58 = FACE_OUTER_BOUND ( 'NONE', #148, .T. ) ;
#59 = DIRECTION ( 'NONE',  ( -4.275831445896958607E-31, -1.000000000000000000, -1.224646799147353207E-16 ) ) ;
#60 = PLANE ( 'NONE',  #49 ) ;
#61 = CARTESIAN_POINT ( 'NONE',  ( 2.895106437171947846E-14, -1.892727394643409053E-16, 8.291914394510873976 ) ) ;
#62 = CARTESIAN_POINT ( 'NONE',  ( 1.326762908760390170E-13, -4.653657836759941152E-15, 37.99999999999999289 ) ) ;
#63 = LOCAL_TIME ( 16, 45, 13.00000000000000000, #50 ) ;
#64 = VERTEX_POINT ( 'NONE', #188 ) ;
#65 = COORDINATED_UNIVERSAL_TIME_OFFSET ( 1, 0, .AHEAD. ) ;
#66 = CIRCLE ( 'NONE', #124, 1.349999999999999201 ) ;
#67 =( NAMED_UNIT ( * ) PLANE_ANGLE_UNIT ( ) SI_UNIT ( $, .RADIAN. ) );
#68 = PERSON_AND_ORGANIZATION ( #108, #22 ) ;
#69 = CARTESIAN_POINT ( 'NONE',  ( 2.356749903719115015E-14, 1.124819836996383216E-32, 6.750000000000000000 ) ) ;
#70 = EDGE_LOOP ( 'NONE', ( #125 ) ) ;
#71 = ORIENTED_EDGE ( 'NONE', *, *, #220, .F. ) ;
#72 = EDGE_LOOP ( 'NONE', ( #57 ) ) ;
#73 = FACE_OUTER_BOUND ( 'NONE', #70, .T. ) ;
#74 = DIRECTION ( 'NONE',  ( -3.491481338843133355E-15, 1.224646799147353207E-16, -1.000000000000000000 ) ) ;
#75 = CC_DESIGN_PERSON_AND_ORGANIZATION_ASSIGNMENT ( #209, #138, ( #18 ) ) ;
#76 = DIRECTION ( 'NONE',  ( 3.491481338843133355E-15, -1.227517819005651059E-16, 1.000000000000000000 ) ) ;
#77 = DIRECTION ( 'NONE',  ( -4.347078138912448306E-31, -1.000000000000000000, -1.227517819005651059E-16 ) ) ;
#78 = CLOSED_SHELL ( 'NONE', ( #110, #56, #180 ) ) ;
#79 = CARTESIAN_POINT ( 'NONE',  ( 2.356749903719114699E-14, -8.285745278288143290E-16, 6.749999999999999112 ) ) ;
#80 = APPROVAL_DATE_TIME ( #87, #144 ) ;
#81 = VERTEX_POINT ( 'NONE', #193 ) ;
#82 = AXIS2_PLACEMENT_3D ( 'NONE', #15, #76, #222 ) ;
#83 = PERSON_AND_ORGANIZATION ( #108, #22 ) ;
#84 = CC_DESIGN_PERSON_AND_ORGANIZATION_ASSIGNMENT ( #175, #85, ( #157 ) ) ;
#85 = PERSON_AND_ORGANIZATION_ROLE ( 'creator' ) ;
#86 = APPLICATION_CONTEXT ( 'configuration controlled 3d designs of mechanical parts and assemblies' ) ;
#87 = DATE_AND_TIME ( #173, #135 ) ;
#88 = SHAPE_DEFINITION_REPRESENTATION ( #100, #201 ) ;
#89 = ORIENTED_EDGE ( 'NONE', *, *, #220, .T. ) ;
#90 = EDGE_LOOP ( 'NONE', ( #39 ) ) ;
#91 = CARTESIAN_POINT ( 'NONE',  ( 1.326762908760390170E-13, 8.998558695971017012E-33, 37.99999999999999289 ) ) ;
#92 = AXIS2_PLACEMENT_3D ( 'NONE', #101, #159, #35 ) ;
#93 = VERTEX_POINT ( 'NONE', #45 ) ;
#94 = CARTESIAN_POINT ( 'NONE',  ( -6.413731847436034514E-31, 0.0000000000000000000, -1.836965810494968570E-16 ) ) ;
#95 = ADVANCED_FACE ( 'NONE', ( #14, #150 ), #141, .F. ) ;
#96 = PLANE ( 'NONE',  #129 ) ;
#97 = VERTEX_POINT ( 'NONE', #152 ) ;
#98 = DIRECTION ( 'NONE',  ( 0.0000000000000000000, 1.000000000000000000, 0.0000000000000000000 ) ) ;
#99 = CLOSED_SHELL ( 'NONE', ( #187, #177, #4, #95, #46 ) ) ;
#100 = PRODUCT_DEFINITION_SHAPE ( 'NONE', 'NONE',  #40 ) ;
#101 = CARTESIAN_POINT ( 'NONE',  ( 0.0000000000000000000, 0.0000000000000000000, 0.0000000000000000000 ) ) ;
#102 =( LENGTH_UNIT ( ) NAMED_UNIT ( * ) SI_UNIT ( .MILLI., .METRE. ) );
#103 = EDGE_CURVE ( 'NONE', #93, #93, #10, .T. ) ;
#104 = AXIS2_PLACEMENT_3D ( 'NONE', #186, #16, #77 ) ;
#105 = APPROVAL_DATE_TIME ( #37, #128 ) ;
#106 = ORIENTED_EDGE ( 'NONE', *, *, #54, .T. ) ;
#107 = CIRCLE ( 'NONE', #191, 1.499999999999992006 ) ;
#108 = PERSON ( 'UNSPECIFIED', 'UNSPECIFIED', 'UNSPECIFIED', ('UNSPECIFIED'), ('UNSPECIFIED'), ('UNSPECIFIED') ) ;
#109 = PLANE ( 'NONE',  #210 ) ;
#110 = ADVANCED_FACE ( 'NONE', ( #47 ), #96, .T. ) ;
#111 = DIRECTION ( 'NONE',  ( 3.491481338843133355E-15, -1.224646799147353207E-16, 1.000000000000000000 ) ) ;
#112 = DESIGN_CONTEXT ( 'detailed design', #194, 'design' ) ;
#113 = DIRECTION ( 'NONE',  ( -4.285855558155653280E-31, -1.000000000000000000, -1.227517819005651059E-16 ) ) ;
#114 = MANIFOLD_SOLID_BREP ( 'Corps-Déplacer/Copier1[1]', #99 ) ;
#115 = DIRECTION ( 'NONE',  ( -3.491481338843133355E-15, 1.224646799147353207E-16, -1.000000000000000000 ) ) ;
#116 = FACE_BOUND ( 'NONE', #212, .T. ) ;
#117 = DATE_TIME_ROLE ( 'classification_date' ) ;
#118 = PERSON_AND_ORGANIZATION_ROLE ( 'design_supplier' ) ;
#119 = CALENDAR_DATE ( 2021, 16, 11 ) ;
#120 = EDGE_CURVE ( 'NONE', #64, #64, #34, .T. ) ;
#121 = CALENDAR_DATE ( 2021, 16, 11 ) ;
#122 = MECHANICAL_CONTEXT ( 'NONE', #86, 'mechanical' ) ;
#123 = CALENDAR_DATE ( 2021, 16, 11 ) ;
#124 = AXIS2_PLACEMENT_3D ( 'NONE', #44, #26, #113 ) ;
#125 = ORIENTED_EDGE ( 'NONE', *, *, #199, .T. ) ;
#126 =( GEOMETRIC_REPRESENTATION_CONTEXT ( 3 ) GLOBAL_UNCERTAINTY_ASSIGNED_CONTEXT ( ( #167 ) ) GLOBAL_UNIT_ASSIGNED_CONTEXT ( ( #102, #67, #52 ) ) REPRESENTATION_CONTEXT ( 'NONE', 'WORKASPACE' ) );
#127 = ORIENTED_EDGE ( 'NONE', *, *, #103, .F. ) ;
#128 = APPROVAL ( #156, 'UNSPECIFIED' ) ;
#129 = AXIS2_PLACEMENT_3D ( 'NONE', #33, #223, #151 ) ;
#130 = FACE_OUTER_BOUND ( 'NONE', #164, .T. ) ;
#131 = DIRECTION ( 'NONE',  ( 3.491481338843133355E-15, -1.224646799147353207E-16, 1.000000000000000000 ) ) ;
#132 = DIRECTION ( 'NONE',  ( -3.491481338843133355E-15, 1.227517819005651059E-16, -1.000000000000000000 ) ) ;
#133 = AXIS2_PLACEMENT_3D ( 'NONE', #62, #115, #29 ) ;
#134 = DIRECTION ( 'NONE',  ( -4.275831445896958607E-31, -1.000000000000000000, -1.224646799147353207E-16 ) ) ;
#135 = LOCAL_TIME ( 16, 45, 13.00000000000000000, #65 ) ;
#136 = VERTEX_POINT ( 'NONE', #48 ) ;
#137 = AXIS2_PLACEMENT_3D ( 'NONE', #171, #17, #198 ) ;
#138 = PERSON_AND_ORGANIZATION_ROLE ( 'design_owner' ) ;
#139 = COORDINATED_UNIVERSAL_TIME_OFFSET ( 1, 0, .AHEAD. ) ;
#140 = APPLICATION_PROTOCOL_DEFINITION ( 'international standard', 'config_control_design', 1994, #86 ) ;
#141 = TOROIDAL_SURFACE ( 'NONE', #104, 9.349999999999999645, 8.000000000000000000 ) ;
#142 = APPROVAL_STATUS ( 'not_yet_approved' ) ;
#143 = LOCAL_TIME ( 16, 45, 13.00000000000000000, #3 ) ;
#144 = APPROVAL ( #206, 'UNSPECIFIED' ) ;
#145 = DATE_AND_TIME ( #123, #143 ) ;
#146 = EDGE_LOOP ( 'NONE', ( #213 ) ) ;
#147 = LOCAL_TIME ( 16, 45, 13.00000000000000000, #139 ) ;
#148 = EDGE_LOOP ( 'NONE', ( #8 ) ) ;
#149 = AXIS2_PLACEMENT_3D ( 'NONE', #168, #189, #98 ) ;
#150 = FACE_OUTER_BOUND ( 'NONE', #217, .T. ) ;
#151 = DIRECTION ( 'NONE',  ( -4.275831445896958607E-31, -1.000000000000000000, -1.224646799147353207E-16 ) ) ;
#152 = CARTESIAN_POINT ( 'NONE',  ( -1.157181000702025580E-30, -1.349999999999999201, -3.314298111315255442E-16 ) ) ;
#153 = FACE_OUTER_BOUND ( 'NONE', #197, .T. ) ;
#154 = APPROVAL_PERSON_ORGANIZATION ( #68, #179, #211 ) ;
#155 = COORDINATED_UNIVERSAL_TIME_OFFSET ( 1, 0, .AHEAD. ) ;
#156 = APPROVAL_STATUS ( 'not_yet_approved' ) ;
#157 = PRODUCT_DEFINITION_FORMATION_WITH_SPECIFIED_SOURCE ( 'ANY', '', #18, .NOT_KNOWN. ) ;
#158 = PERSON_AND_ORGANIZATION ( #108, #22 ) ;
#159 = DIRECTION ( 'NONE',  ( 0.0000000000000000000, 0.0000000000000000000, 1.000000000000000000 ) ) ;
#160 = EDGE_LOOP ( 'NONE', ( #127 ) ) ;
#161 = ORIENTED_EDGE ( 'NONE', *, *, #199, .F. ) ;
#162 = DIRECTION ( 'NONE',  ( -3.491481338843133355E-15, 1.224646799147353207E-16, -1.000000000000000000 ) ) ;
#163 = APPROVAL_DATE_TIME ( #145, #179 ) ;
#164 = EDGE_LOOP ( 'NONE', ( #106 ) ) ;
#165 = DIRECTION ( 'NONE',  ( 0.0000000000000000000, -1.000000000000000000, 0.0000000000000000000 ) ) ;
#166 = DIRECTION ( 'NONE',  ( -4.285855558155654155E-31, -1.000000000000000000, -1.227517819005651059E-16 ) ) ;
#167 = UNCERTAINTY_MEASURE_WITH_UNIT (LENGTH_MEASURE( 1.000000000000000082E-05 ), #102, 'distance_accuracy_value', 'NONE');
#168 = CARTESIAN_POINT ( 'NONE',  ( 1.326762908760390170E-13, -4.653657836759941152E-15, 37.99999999999999289 ) ) ;
#169 = CC_DESIGN_DATE_AND_TIME_ASSIGNMENT ( #20, #207, ( #40 ) ) ;
#170 = CYLINDRICAL_SURFACE ( 'NONE', #203, 1.349999999999999423 ) ;
#171 = CARTESIAN_POINT ( 'NONE',  ( 0.0000000000000000000, 0.0000000000000000000, 0.0000000000000000000 ) ) ;
#172 = CC_DESIGN_PERSON_AND_ORGANIZATION_ASSIGNMENT ( #158, #118, ( #157 ) ) ;
#173 = CALENDAR_DATE ( 2021, 16, 11 ) ;
#174 = PERSON_AND_ORGANIZATION ( #108, #22 ) ;
#175 = PERSON_AND_ORGANIZATION ( #108, #22 ) ;
#176 = CC_DESIGN_DATE_AND_TIME_ASSIGNMENT ( #23, #117, ( #1 ) ) ;
#177 = ADVANCED_FACE ( 'NONE', ( #31, #116 ), #218, .T. ) ;
#178 = CALENDAR_DATE ( 2021, 16, 11 ) ;
#179 = APPROVAL ( #142, 'UNSPECIFIED' ) ;
#180 = ADVANCED_FACE ( 'NONE', ( #13 ), #60, .F. ) ;
#181 = EDGE_LOOP ( 'NONE', ( #12 ) ) ;
#182 = ORIENTED_EDGE ( 'NONE', *, *, #120, .T. ) ;
#183 = LOCAL_TIME ( 16, 45, 13.00000000000000000, #155 ) ;
#184 = VERTEX_POINT ( 'NONE', #2 ) ;
#185 = FACE_OUTER_BOUND ( 'NONE', #160, .T. ) ;
#186 = CARTESIAN_POINT ( 'NONE',  ( 2.356749903719114699E-14, 0.0000000000000000000, 6.749999999999999112 ) ) ;
#187 = ADVANCED_FACE ( 'NONE', ( #130, #153 ), #200, .T. ) ;
#188 = CARTESIAN_POINT ( 'NONE',  ( 1.326762908760390170E-13, 1.199999999999987521, 37.99999999999999289 ) ) ;
#189 = DIRECTION ( 'NONE',  ( -3.491481338843133355E-15, 1.224646799147353207E-16, -1.000000000000000000 ) ) ;
#190 = APPLICATION_PROTOCOL_DEFINITION ( 'international standard', 'config_control_design', 1994, #194 ) ;
#191 = AXIS2_PLACEMENT_3D ( 'NONE', #221, #74, #27 ) ;
#192 = CC_DESIGN_APPROVAL ( #128, ( #157 ) ) ;
#193 = CARTESIAN_POINT ( 'NONE',  ( 2.895106437171947846E-14, 1.499999999999989786, 8.291914394510873976 ) ) ;
#194 = APPLICATION_CONTEXT ( 'configuration controlled 3d designs of mechanical parts and assemblies' ) ;
#195 = CC_DESIGN_SECURITY_CLASSIFICATION ( #1, ( #157 ) ) ;
#196 = FACE_OUTER_BOUND ( 'NONE', #72, .T. ) ;
#197 = EDGE_LOOP ( 'NONE', ( #71 ) ) ;
#198 = DIRECTION ( 'NONE',  ( 4.275831445896959482E-31, 1.000000000000000000, 1.224646799147353207E-16 ) ) ;
#199 = EDGE_CURVE ( 'NONE', #97, #97, #66, .T. ) ;
#200 = CYLINDRICAL_SURFACE ( 'NONE', #137, 1.499999999999990008 ) ;
#201 = ADVANCED_BREP_SHAPE_REPRESENTATION ( '966150', ( #114, #42, #92 ), #126 ) ;
#202 = DIRECTION ( 'NONE',  ( 0.0000000000000000000, 1.000000000000000000, 0.0000000000000000000 ) ) ;
#203 = AXIS2_PLACEMENT_3D ( 'NONE', #94, #43, #166 ) ;
#204 = APPROVAL_PERSON_ORGANIZATION ( #174, #144, #21 ) ;
#205 = DIRECTION ( 'NONE',  ( 3.491481338843133355E-15, -1.227517819005651059E-16, 1.000000000000000000 ) ) ;
#206 = APPROVAL_STATUS ( 'not_yet_approved' ) ;
#207 = DATE_TIME_ROLE ( 'creation_date' ) ;
#208 = CC_DESIGN_PERSON_AND_ORGANIZATION_ASSIGNMENT ( #36, #51, ( #40 ) ) ;
#209 = PERSON_AND_ORGANIZATION ( #108, #22 ) ;
#210 = AXIS2_PLACEMENT_3D ( 'NONE', #69, #111, #59 ) ;
#211 = APPROVAL_ROLE ( '' ) ;
#212 = EDGE_LOOP ( 'NONE', ( #182 ) ) ;
#213 = ORIENTED_EDGE ( 'NONE', *, *, #216, .T. ) ;
#214 = CIRCLE ( 'NONE', #38, 1.499999999999990008 ) ;
#215 = DIRECTION ( 'NONE',  ( 4.275831445896958607E-31, 1.000000000000000000, 1.224646799147353207E-16 ) ) ;
#216 = EDGE_CURVE ( 'NONE', #136, #136, #28, .T. ) ;
#217 = EDGE_LOOP ( 'NONE', ( #89 ) ) ;
#218 = CONICAL_SURFACE ( 'NONE', #149, 1.199999999999992184, 0.7853981633974338461 ) ;
#219 = CARTESIAN_POINT ( 'NONE',  ( -2.137917073001454058E-30, 7.498803648657679327E-32, -6.123237862442165323E-16 ) ) ;
#220 = EDGE_CURVE ( 'NONE', #81, #81, #214, .T. ) ;
#221 = CARTESIAN_POINT ( 'NONE',  ( 1.316288464743860707E-13, -4.616918432785519503E-15, 37.69999999999998153 ) ) ;
#222 = DIRECTION ( 'NONE',  ( 0.0000000000000000000, -1.000000000000000000, 0.0000000000000000000 ) ) ;
#223 = DIRECTION ( 'NONE',  ( 3.491481338843133355E-15, -1.224646799147353207E-16, 1.000000000000000000 ) ) ;
ENDSEC;
END-ISO-10303-21;
