ISO-10303-21;
HEADER;
FILE_DESCRIPTION (( 'STEP AP203' ),
    '1' );
FILE_NAME ('966149.step',
    '2021-11-16T15:45:12',
    ( '' ),
    ( '' ),
    'SwSTEP 2.0',
    'SolidWorks 2019',
    '' );
FILE_SCHEMA (( 'CONFIG_CONTROL_DESIGN' ));
ENDSEC;

DATA;
#1 = FACE_OUTER_BOUND ( 'NONE', #11, .T. ) ;
#2 = APPROVAL_DATE_TIME ( #72, #117 ) ;
#3 = VERTEX_POINT ( 'NONE', #139 ) ;
#4 = SECURITY_CLASSIFICATION_LEVEL ( 'unclassified' ) ;
#5 = DIRECTION ( 'NONE',  ( 3.491481338843133355E-15, -1.224646799147353207E-16, 1.000000000000000000 ) ) ;
#6 = APPROVAL_DATE_TIME ( #165, #54 ) ;
#7 = ADVANCED_FACE ( 'NONE', ( #116, #64 ), #218, .T. ) ;
#8 = CARTESIAN_POINT ( 'NONE',  ( 1.326762908760390170E-13, -4.653657836759941152E-15, 37.99999999999999289 ) ) ;
#9 = PERSON_AND_ORGANIZATION ( #131, #30 ) ;
#10 = SHAPE_DEFINITION_REPRESENTATION ( #137, #56 ) ;
#11 = EDGE_LOOP ( 'NONE', ( #151 ) ) ;
#12 = APPROVAL ( #22, 'UNSPECIFIED' ) ;
#13 = CLOSED_SHELL ( 'NONE', ( #207, #63, #83 ) ) ;
#14 =( NAMED_UNIT ( * ) SI_UNIT ( $, .STERADIAN. ) SOLID_ANGLE_UNIT ( ) );
#15 = AXIS2_PLACEMENT_3D ( 'NONE', #196, #178, #18 ) ;
#16 = DIRECTION ( 'NONE',  ( -3.491481338843133355E-15, 1.224646799147353207E-16, -1.000000000000000000 ) ) ;
#17 = AXIS2_PLACEMENT_3D ( 'NONE', #23, #87, #153 ) ;
#18 = DIRECTION ( 'NONE',  ( 0.0000000000000000000, 1.000000000000000000, 0.0000000000000000000 ) ) ;
#19 = CALENDAR_DATE ( 2021, 16, 11 ) ;
#20 = EDGE_CURVE ( 'NONE', #126, #126, #197, .T. ) ;
#21 = DIRECTION ( 'NONE',  ( 0.0000000000000000000, 1.000000000000000000, 0.0000000000000000000 ) ) ;
#22 = APPROVAL_STATUS ( 'not_yet_approved' ) ;
#23 = CARTESIAN_POINT ( 'NONE',  ( 2.890122169129363838E-14, -2.182083405208236726E-16, 8.277638883463074748 ) ) ;
#24 = CARTESIAN_POINT ( 'NONE',  ( -5.571612225602343308E-31, -2.960682705174264853E-33, -1.595773164707344848E-16 ) ) ;
#25 = DATE_AND_TIME ( #108, #162 ) ;
#26 = CC_DESIGN_SECURITY_CLASSIFICATION ( #205, ( #135 ) ) ;
#27 = CIRCLE ( 'NONE', #15, 1.499999999999992006 ) ;
#28 = EDGE_CURVE ( 'NONE', #3, #3, #27, .T. ) ;
#29 = DIRECTION ( 'NONE',  ( -3.491481338843133355E-15, 1.224646799147353207E-16, -1.000000000000000000 ) ) ;
#30 = ORGANIZATION ( 'UNSPECIFIED', 'UNSPECIFIED', '' ) ;
#31 = ORIENTED_EDGE ( 'NONE', *, *, #125, .T. ) ;
#32 = CARTESIAN_POINT ( 'NONE',  ( 1.326762908760390170E-13, 1.199999999999987521, 37.99999999999999289 ) ) ;
#33 =( LENGTH_UNIT ( ) NAMED_UNIT ( * ) SI_UNIT ( .MILLI., .METRE. ) );
#34 = ORIENTED_EDGE ( 'NONE', *, *, #191, .F. ) ;
#35 = EDGE_LOOP ( 'NONE', ( #169 ) ) ;
#36 = DIRECTION ( 'NONE',  ( 0.0000000000000000000, -1.000000000000000000, 0.0000000000000000000 ) ) ;
#37 = CYLINDRICAL_SURFACE ( 'NONE', #84, 1.299999999999999600 ) ;
#38 = CIRCLE ( 'NONE', #17, 1.499999999999990008 ) ;
#39 = PLANE ( 'NONE',  #202 ) ;
#40 = CARTESIAN_POINT ( 'NONE',  ( -6.413731847436034514E-31, 0.0000000000000000000, -1.836965810494968570E-16 ) ) ;
#41 = PERSON_AND_ORGANIZATION ( #131, #30 ) ;
#42 = FACE_OUTER_BOUND ( 'NONE', #118, .T. ) ;
#43 = PERSON_AND_ORGANIZATION ( #131, #30 ) ;
#44 = COORDINATED_UNIVERSAL_TIME_OFFSET ( 1, 0, .AHEAD. ) ;
#45 = CC_DESIGN_PERSON_AND_ORGANIZATION_ASSIGNMENT ( #210, #61, ( #86 ) ) ;
#46 = EDGE_LOOP ( 'NONE', ( #136 ) ) ;
#47 = AXIS2_PLACEMENT_3D ( 'NONE', #59, #5, #127 ) ;
#48 = ORIENTED_EDGE ( 'NONE', *, *, #28, .T. ) ;
#49 =( NAMED_UNIT ( * ) PLANE_ANGLE_UNIT ( ) SI_UNIT ( $, .RADIAN. ) );
#50 = ORIENTED_EDGE ( 'NONE', *, *, #191, .T. ) ;
#51 = DIRECTION ( 'NONE',  ( 1.000000000000000000, 0.0000000000000000000, 0.0000000000000000000 ) ) ;
#52 = PLANE ( 'NONE',  #130 ) ;
#53 = PERSON_AND_ORGANIZATION ( #131, #30 ) ;
#54 = APPROVAL ( #182, 'UNSPECIFIED' ) ;
#55 = PLANE ( 'NONE',  #47 ) ;
#56 = ADVANCED_BREP_SHAPE_REPRESENTATION ( '966149', ( #66, #144, #62 ), #109 ) ;
#57 = CIRCLE ( 'NONE', #190, 1.199999999999992184 ) ;
#58 = DIRECTION ( 'NONE',  ( -4.275831445896958607E-31, -1.000000000000000000, -1.224646799147353207E-16 ) ) ;
#59 = CARTESIAN_POINT ( 'NONE',  ( -2.137917073001454058E-30, 7.498803648657679327E-32, -6.123237862442165323E-16 ) ) ;
#60 = COORDINATED_UNIVERSAL_TIME_OFFSET ( 1, 0, .AHEAD. ) ;
#61 = PERSON_AND_ORGANIZATION_ROLE ( 'design_owner' ) ;
#62 = AXIS2_PLACEMENT_3D ( 'NONE', #220, #69, #51 ) ;
#63 = ADVANCED_FACE ( 'NONE', ( #157, #211 ), #37, .T. ) ;
#64 = FACE_BOUND ( 'NONE', #101, .T. ) ;
#65 = EDGE_CURVE ( 'NONE', #112, #112, #213, .T. ) ;
#66 = MANIFOLD_SOLID_BREP ( 'Corps-Déplacer/Copier1[1]', #170 ) ;
#67 = EDGE_LOOP ( 'NONE', ( #206 ) ) ;
#68 = LOCAL_TIME ( 16, 45, 12.00000000000000000, #44 ) ;
#69 = DIRECTION ( 'NONE',  ( 0.0000000000000000000, 0.0000000000000000000, 1.000000000000000000 ) ) ;
#70 = FACE_OUTER_BOUND ( 'NONE', #67, .T. ) ;
#71 = FACE_OUTER_BOUND ( 'NONE', #222, .T. ) ;
#72 = DATE_AND_TIME ( #19, #107 ) ;
#73 = FACE_OUTER_BOUND ( 'NONE', #35, .T. ) ;
#74 = CARTESIAN_POINT ( 'NONE',  ( -1.114322445120468837E-30, -1.299999999999999156, -3.191546329414690189E-16 ) ) ;
#75 = PERSON_AND_ORGANIZATION ( #131, #30 ) ;
#76 = CARTESIAN_POINT ( 'NONE',  ( 0.0000000000000000000, 0.0000000000000000000, 0.0000000000000000000 ) ) ;
#77 = LOCAL_TIME ( 16, 45, 12.00000000000000000, #123 ) ;
#78 = PRODUCT_RELATED_PRODUCT_CATEGORY ( 'detail', '', ( #86 ) ) ;
#79 = EDGE_LOOP ( 'NONE', ( #31 ) ) ;
#80 = ORIENTED_EDGE ( 'NONE', *, *, #20, .T. ) ;
#81 = APPLICATION_PROTOCOL_DEFINITION ( 'international standard', 'config_control_design', 1994, #134 ) ;
#82 = CC_DESIGN_APPROVAL ( #117, ( #205 ) ) ;
#83 = ADVANCED_FACE ( 'NONE', ( #185 ), #55, .F. ) ;
#84 = AXIS2_PLACEMENT_3D ( 'NONE', #40, #164, #194 ) ;
#85 = CARTESIAN_POINT ( 'NONE',  ( 2.890122169129363838E-14, 1.499999999999989786, 8.277638883463074748 ) ) ;
#86 = PRODUCT ( '966149', '966149', '', ( #223 ) ) ;
#87 = DIRECTION ( 'NONE',  ( -3.491481338843133355E-15, 1.227517819005651059E-16, -1.000000000000000000 ) ) ;
#88 = CALENDAR_DATE ( 2021, 16, 11 ) ;
#89 = AXIS2_PLACEMENT_3D ( 'NONE', #92, #216, #96 ) ;
#90 = CARTESIAN_POINT ( 'NONE',  ( 2.269462870248036365E-14, -1.300000000000000711, 6.499999999999999112 ) ) ;
#91 = PERSON_AND_ORGANIZATION_ROLE ( 'creator' ) ;
#92 = CARTESIAN_POINT ( 'NONE',  ( 2.269462870248036681E-14, 1.124819836996383216E-32, 6.500000000000000000 ) ) ;
#93 = PERSON_AND_ORGANIZATION_ROLE ( 'creator' ) ;
#94 = FACE_OUTER_BOUND ( 'NONE', #102, .T. ) ;
#95 = ADVANCED_FACE ( 'NONE', ( #71 ), #215, .F. ) ;
#96 = DIRECTION ( 'NONE',  ( -4.275831445896958607E-31, -1.000000000000000000, -1.224646799147353207E-16 ) ) ;
#97 = DATE_AND_TIME ( #180, #68 ) ;
#98 = AXIS2_PLACEMENT_3D ( 'NONE', #199, #113, #120 ) ;
#99 = APPLICATION_CONTEXT ( 'configuration controlled 3d designs of mechanical parts and assemblies' ) ;
#100 = ADVANCED_FACE ( 'NONE', ( #42, #73 ), #152, .F. ) ;
#101 = EDGE_LOOP ( 'NONE', ( #50 ) ) ;
#102 = EDGE_LOOP ( 'NONE', ( #48 ) ) ;
#103 = EDGE_LOOP ( 'NONE', ( #34 ) ) ;
#104 = CARTESIAN_POINT ( 'NONE',  ( 1.326762908760390170E-13, 8.998558695971017012E-33, 37.99999999999999289 ) ) ;
#105 = VERTEX_POINT ( 'NONE', #32 ) ;
#106 = DIRECTION ( 'NONE',  ( 3.491481338843133355E-15, -1.224646799147353207E-16, 1.000000000000000000 ) ) ;
#107 = LOCAL_TIME ( 16, 45, 12.00000000000000000, #145 ) ;
#108 = CALENDAR_DATE ( 2021, 16, 11 ) ;
#109 =( GEOMETRIC_REPRESENTATION_CONTEXT ( 3 ) GLOBAL_UNCERTAINTY_ASSIGNED_CONTEXT ( ( #174 ) ) GLOBAL_UNIT_ASSIGNED_CONTEXT ( ( #33, #49, #14 ) ) REPRESENTATION_CONTEXT ( 'NONE', 'WORKASPACE' ) );
#110 = DIRECTION ( 'NONE',  ( -3.491481338843133355E-15, 1.224646799147353207E-16, -1.000000000000000000 ) ) ;
#111 = CC_DESIGN_PERSON_AND_ORGANIZATION_ASSIGNMENT ( #201, #93, ( #135 ) ) ;
#112 = VERTEX_POINT ( 'NONE', #183 ) ;
#113 = DIRECTION ( 'NONE',  ( 3.491481338843133355E-15, -1.227517819005651059E-16, 1.000000000000000000 ) ) ;
#114 = PERSON_AND_ORGANIZATION_ROLE ( 'design_supplier' ) ;
#115 = AXIS2_PLACEMENT_3D ( 'NONE', #219, #29, #133 ) ;
#116 = FACE_OUTER_BOUND ( 'NONE', #172, .T. ) ;
#117 = APPROVAL ( #160, 'UNSPECIFIED' ) ;
#118 = EDGE_LOOP ( 'NONE', ( #80 ) ) ;
#119 = DESIGN_CONTEXT ( 'detailed design', #99, 'design' ) ;
#120 = DIRECTION ( 'NONE',  ( -4.347255082787467782E-31, -1.000000000000000000, -1.227517819005651059E-16 ) ) ;
#121 = CARTESIAN_POINT ( 'NONE',  ( 2.269462870248036681E-14, 1.124819836996383216E-32, 6.500000000000000000 ) ) ;
#122 = CARTESIAN_POINT ( 'NONE',  ( 2.269462870248036365E-14, -7.978865823536730648E-16, 6.499999999999999112 ) ) ;
#123 = COORDINATED_UNIVERSAL_TIME_OFFSET ( 1, 0, .AHEAD. ) ;
#124 = AXIS2_PLACEMENT_3D ( 'NONE', #76, #181, #146 ) ;
#125 = EDGE_CURVE ( 'NONE', #161, #161, #168, .T. ) ;
#126 = VERTEX_POINT ( 'NONE', #90 ) ;
#127 = DIRECTION ( 'NONE',  ( -4.275831445896958607E-31, -1.000000000000000000, -1.224646799147353207E-16 ) ) ;
#128 = PERSON_AND_ORGANIZATION ( #131, #30 ) ;
#129 = DATE_AND_TIME ( #195, #147 ) ;
#130 = AXIS2_PLACEMENT_3D ( 'NONE', #121, #106, #58 ) ;
#131 = PERSON ( 'UNSPECIFIED', 'UNSPECIFIED', 'UNSPECIFIED', ('UNSPECIFIED'), ('UNSPECIFIED'), ('UNSPECIFIED') ) ;
#132 = ADVANCED_FACE ( 'NONE', ( #94, #1 ), #176, .T. ) ;
#133 = DIRECTION ( 'NONE',  ( 0.0000000000000000000, 1.000000000000000000, 0.0000000000000000000 ) ) ;
#134 = APPLICATION_CONTEXT ( 'configuration controlled 3d designs of mechanical parts and assemblies' ) ;
#135 = PRODUCT_DEFINITION_FORMATION_WITH_SPECIFIED_SOURCE ( 'ANY', '', #86, .NOT_KNOWN. ) ;
#136 = ORIENTED_EDGE ( 'NONE', *, *, #125, .F. ) ;
#137 = PRODUCT_DEFINITION_SHAPE ( 'NONE', 'NONE',  #173 ) ;
#138 = DIRECTION ( 'NONE',  ( 3.491481338843133355E-15, -1.227517819005651059E-16, 1.000000000000000000 ) ) ;
#139 = CARTESIAN_POINT ( 'NONE',  ( 1.316288464743860707E-13, 1.499999999999987566, 37.69999999999998153 ) ) ;
#140 = ADVANCED_FACE ( 'NONE', ( #193 ), #39, .F. ) ;
#141 = DIRECTION ( 'NONE',  ( 3.491481338843133355E-15, -1.227517819005651059E-16, 1.000000000000000000 ) ) ;
#142 = APPLICATION_PROTOCOL_DEFINITION ( 'international standard', 'config_control_design', 1994, #99 ) ;
#143 = VERTEX_POINT ( 'NONE', #85 ) ;
#144 = MANIFOLD_SOLID_BREP ( 'Corps-Déplacer/Copier1[2]', #13 ) ;
#145 = COORDINATED_UNIVERSAL_TIME_OFFSET ( 1, 0, .AHEAD. ) ;
#146 = DIRECTION ( 'NONE',  ( 4.275831445896959482E-31, 1.000000000000000000, 1.224646799147353207E-16 ) ) ;
#147 = LOCAL_TIME ( 16, 45, 12.00000000000000000, #60 ) ;
#148 = CC_DESIGN_DATE_AND_TIME_ASSIGNMENT ( #129, #158, ( #173 ) ) ;
#149 = CC_DESIGN_APPROVAL ( #12, ( #135 ) ) ;
#150 = CARTESIAN_POINT ( 'NONE',  ( 2.269462870248036365E-14, -7.978865823536730648E-16, 6.499999999999999112 ) ) ;
#151 = ORIENTED_EDGE ( 'NONE', *, *, #188, .F. ) ;
#152 = TOROIDAL_SURFACE ( 'NONE', #98, 9.299999999999998934, 8.000000000000000000 ) ;
#153 = DIRECTION ( 'NONE',  ( 0.0000000000000000000, 1.000000000000000000, 0.0000000000000000000 ) ) ;
#154 = CC_DESIGN_APPROVAL ( #54, ( #173 ) ) ;
#155 = APPROVAL_ROLE ( '' ) ;
#156 = CC_DESIGN_PERSON_AND_ORGANIZATION_ASSIGNMENT ( #43, #163, ( #205 ) ) ;
#157 = FACE_OUTER_BOUND ( 'NONE', #79, .T. ) ;
#158 = DATE_TIME_ROLE ( 'creation_date' ) ;
#159 = DIRECTION ( 'NONE',  ( 0.0000000000000000000, -1.000000000000000000, 0.0000000000000000000 ) ) ;
#160 = APPROVAL_STATUS ( 'not_yet_approved' ) ;
#161 = VERTEX_POINT ( 'NONE', #74 ) ;
#162 = LOCAL_TIME ( 16, 45, 12.00000000000000000, #187 ) ;
#163 = PERSON_AND_ORGANIZATION_ROLE ( 'classification_officer' ) ;
#164 = DIRECTION ( 'NONE',  ( 3.491481338843133355E-15, -1.227517819005651059E-16, 1.000000000000000000 ) ) ;
#165 = DATE_AND_TIME ( #88, #77 ) ;
#166 = AXIS2_PLACEMENT_3D ( 'NONE', #150, #138, #159 ) ;
#167 = CC_DESIGN_PERSON_AND_ORGANIZATION_ASSIGNMENT ( #75, #91, ( #173 ) ) ;
#168 = CIRCLE ( 'NONE', #217, 1.299999999999999156 ) ;
#169 = ORIENTED_EDGE ( 'NONE', *, *, #188, .T. ) ;
#170 = CLOSED_SHELL ( 'NONE', ( #132, #7, #140, #100, #95 ) ) ;
#171 = ORIENTED_EDGE ( 'NONE', *, *, #28, .F. ) ;
#172 = EDGE_LOOP ( 'NONE', ( #171 ) ) ;
#173 = PRODUCT_DEFINITION ( 'UNKNOWN', '', #135, #119 ) ;
#174 = UNCERTAINTY_MEASURE_WITH_UNIT (LENGTH_MEASURE( 1.000000000000000082E-05 ), #33, 'distance_accuracy_value', 'NONE');
#175 = ORIENTED_EDGE ( 'NONE', *, *, #65, .F. ) ;
#176 = CYLINDRICAL_SURFACE ( 'NONE', #124, 1.499999999999990008 ) ;
#177 = APPROVAL_PERSON_ORGANIZATION ( #128, #12, #203 ) ;
#178 = DIRECTION ( 'NONE',  ( -3.491481338843133355E-15, 1.224646799147353207E-16, -1.000000000000000000 ) ) ;
#179 = APPROVAL_PERSON_ORGANIZATION ( #9, #54, #186 ) ;
#180 = CALENDAR_DATE ( 2021, 16, 11 ) ;
#181 = DIRECTION ( 'NONE',  ( -3.491481338843133355E-15, 1.224646799147353207E-16, -1.000000000000000000 ) ) ;
#182 = APPROVAL_STATUS ( 'not_yet_approved' ) ;
#183 = CARTESIAN_POINT ( 'NONE',  ( 2.269462870248036365E-14, -1.300000000000000711, 6.499999999999999112 ) ) ;
#184 = APPROVAL_DATE_TIME ( #97, #12 ) ;
#185 = FACE_OUTER_BOUND ( 'NONE', #46, .T. ) ;
#186 = APPROVAL_ROLE ( '' ) ;
#187 = COORDINATED_UNIVERSAL_TIME_OFFSET ( 1, 0, .AHEAD. ) ;
#188 = EDGE_CURVE ( 'NONE', #143, #143, #38, .T. ) ;
#189 = APPROVAL_PERSON_ORGANIZATION ( #41, #117, #155 ) ;
#190 = AXIS2_PLACEMENT_3D ( 'NONE', #8, #110, #21 ) ;
#191 = EDGE_CURVE ( 'NONE', #105, #105, #57, .T. ) ;
#192 = EDGE_LOOP ( 'NONE', ( #175 ) ) ;
#193 = FACE_OUTER_BOUND ( 'NONE', #103, .T. ) ;
#194 = DIRECTION ( 'NONE',  ( -4.285855558155652404E-31, -1.000000000000000000, -1.227517819005651059E-16 ) ) ;
#195 = CALENDAR_DATE ( 2021, 16, 11 ) ;
#196 = CARTESIAN_POINT ( 'NONE',  ( 1.316288464743860707E-13, -4.616918432785519503E-15, 37.69999999999998153 ) ) ;
#197 = CIRCLE ( 'NONE', #166, 1.300000000000000044 ) ;
#198 = DATE_TIME_ROLE ( 'classification_date' ) ;
#199 = CARTESIAN_POINT ( 'NONE',  ( 2.269462870248036365E-14, 0.0000000000000000000, 6.499999999999999112 ) ) ;
#200 = DIRECTION ( 'NONE',  ( 3.491481338843133355E-15, -1.227517819005651059E-16, 1.000000000000000000 ) ) ;
#201 = PERSON_AND_ORGANIZATION ( #131, #30 ) ;
#202 = AXIS2_PLACEMENT_3D ( 'NONE', #104, #16, #209 ) ;
#203 = APPROVAL_ROLE ( '' ) ;
#204 = CC_DESIGN_PERSON_AND_ORGANIZATION_ASSIGNMENT ( #53, #114, ( #135 ) ) ;
#205 = SECURITY_CLASSIFICATION ( '', '', #4 ) ;
#206 = ORIENTED_EDGE ( 'NONE', *, *, #65, .T. ) ;
#207 = ADVANCED_FACE ( 'NONE', ( #70 ), #52, .T. ) ;
#208 = ORIENTED_EDGE ( 'NONE', *, *, #20, .F. ) ;
#209 = DIRECTION ( 'NONE',  ( 4.275831445896958607E-31, 1.000000000000000000, 1.224646799147353207E-16 ) ) ;
#210 = PERSON_AND_ORGANIZATION ( #131, #30 ) ;
#211 = FACE_OUTER_BOUND ( 'NONE', #192, .T. ) ;
#212 = DIRECTION ( 'NONE',  ( -4.285855558155652404E-31, -1.000000000000000000, -1.227517819005651059E-16 ) ) ;
#213 = CIRCLE ( 'NONE', #221, 1.300000000000000044 ) ;
#214 = CC_DESIGN_DATE_AND_TIME_ASSIGNMENT ( #25, #198, ( #205 ) ) ;
#215 = PLANE ( 'NONE',  #89 ) ;
#216 = DIRECTION ( 'NONE',  ( 3.491481338843133355E-15, -1.224646799147353207E-16, 1.000000000000000000 ) ) ;
#217 = AXIS2_PLACEMENT_3D ( 'NONE', #24, #141, #212 ) ;
#218 = CONICAL_SURFACE ( 'NONE', #115, 1.199999999999992184, 0.7853981633974338461 ) ;
#219 = CARTESIAN_POINT ( 'NONE',  ( 1.326762908760390170E-13, -4.653657836759941152E-15, 37.99999999999999289 ) ) ;
#220 = CARTESIAN_POINT ( 'NONE',  ( 0.0000000000000000000, 0.0000000000000000000, 0.0000000000000000000 ) ) ;
#221 = AXIS2_PLACEMENT_3D ( 'NONE', #122, #200, #36 ) ;
#222 = EDGE_LOOP ( 'NONE', ( #208 ) ) ;
#223 = MECHANICAL_CONTEXT ( 'NONE', #134, 'mechanical' ) ;
ENDSEC;
END-ISO-10303-21;
