ISO-10303-21;
HEADER;
FILE_DESCRIPTION (( 'STEP AP203' ),
    '1' );
FILE_NAME ('966148.step',
    '2021-11-16T15:45:12',
    ( '' ),
    ( '' ),
    'SwSTEP 2.0',
    'SolidWorks 2019',
    '' );
FILE_SCHEMA (( 'CONFIG_CONTROL_DESIGN' ));
ENDSEC;

DATA;
#1 = ORIENTED_EDGE ( 'NONE', *, *, #166, .T. ) ;
#2 = PLANE ( 'NONE',  #136 ) ;
#3 = DIRECTION ( 'NONE',  ( 0.0000000000000000000, 1.000000000000000000, 0.0000000000000000000 ) ) ;
#4 = APPROVAL_PERSON_ORGANIZATION ( #202, #78, #96 ) ;
#5 = DIRECTION ( 'NONE',  ( -4.275831445896958607E-31, -1.000000000000000000, -1.224646799147353207E-16 ) ) ;
#6 = CC_DESIGN_APPROVAL ( #78, ( #219 ) ) ;
#7 = DIRECTION ( 'NONE',  ( 3.491481338843133355E-15, -1.227517819005651059E-16, 1.000000000000000000 ) ) ;
#8 = CARTESIAN_POINT ( 'NONE',  ( 2.094888803305880013E-14, 1.124819836996383490E-32, 6.000000000000000000 ) ) ;
#9 = CALENDAR_DATE ( 2021, 16, 11 ) ;
#10 = PERSON_AND_ORGANIZATION_ROLE ( 'design_owner' ) ;
#11 = DATE_AND_TIME ( #117, #88 ) ;
#12 = EDGE_LOOP ( 'NONE', ( #102 ) ) ;
#13 = APPLICATION_PROTOCOL_DEFINITION ( 'international standard', 'config_control_design', 1994, #140 ) ;
#14 = DIRECTION ( 'NONE',  ( 3.491481338843133355E-15, -1.227517819005651059E-16, 1.000000000000000000 ) ) ;
#15 = AXIS2_PLACEMENT_3D ( 'NONE', #134, #207, #189 ) ;
#16 = DATE_AND_TIME ( #131, #104 ) ;
#17 = FACE_OUTER_BOUND ( 'NONE', #154, .T. ) ;
#18 = CC_DESIGN_PERSON_AND_ORGANIZATION_ASSIGNMENT ( #45, #64, ( #219 ) ) ;
#19 = ORIENTED_EDGE ( 'NONE', *, *, #166, .F. ) ;
#20 = APPROVAL_PERSON_ORGANIZATION ( #130, #208, #51 ) ;
#21 = FACE_OUTER_BOUND ( 'NONE', #118, .T. ) ;
#22 = PRODUCT_DEFINITION ( 'UNKNOWN', '', #176, #115 ) ;
#23 =( LENGTH_UNIT ( ) NAMED_UNIT ( * ) SI_UNIT ( .MILLI., .METRE. ) );
#24 = TOROIDAL_SURFACE ( 'NONE', #185, 9.199999999999999289, 8.000000000000000000 ) ;
#25 = DIRECTION ( 'NONE',  ( 3.491481338843133355E-15, -1.224646799147353207E-16, 1.000000000000000000 ) ) ;
#26 = CARTESIAN_POINT ( 'NONE',  ( -1.028605333957356051E-30, -1.199999999999999289, -2.946042765613560174E-16 ) ) ;
#27 = CARTESIAN_POINT ( 'NONE',  ( 2.094888803305879698E-14, -1.200000000000001066, 5.999999999999999112 ) ) ;
#28 = CIRCLE ( 'NONE', #56, 1.499999999999992006 ) ;
#29 = ORIENTED_EDGE ( 'NONE', *, *, #152, .F. ) ;
#30 = APPROVAL_STATUS ( 'not_yet_approved' ) ;
#31 = FACE_OUTER_BOUND ( 'NONE', #223, .T. ) ;
#32 = AXIS2_PLACEMENT_3D ( 'NONE', #180, #121, #40 ) ;
#33 = ORIENTED_EDGE ( 'NONE', *, *, #194, .F. ) ;
#34 = ADVANCED_BREP_SHAPE_REPRESENTATION ( '966148', ( #135, #65, #39 ), #113 ) ;
#35 = CARTESIAN_POINT ( 'NONE',  ( -2.137917073001454058E-30, 7.498803648657679327E-32, -6.123237862442165323E-16 ) ) ;
#36 = ADVANCED_FACE ( 'NONE', ( #31, #67 ), #124, .T. ) ;
#37 = DIRECTION ( 'NONE',  ( 0.0000000000000000000, -1.000000000000000000, 0.0000000000000000000 ) ) ;
#38 = ADVANCED_FACE ( 'NONE', ( #174, #98 ), #101, .T. ) ;
#39 = AXIS2_PLACEMENT_3D ( 'NONE', #94, #222, #146 ) ;
#40 = DIRECTION ( 'NONE',  ( 0.0000000000000000000, -1.000000000000000000, 0.0000000000000000000 ) ) ;
#41 = ADVANCED_FACE ( 'NONE', ( #17 ), #151, .F. ) ;
#42 = DIRECTION ( 'NONE',  ( 0.0000000000000000000, 1.000000000000000000, 0.0000000000000000000 ) ) ;
#43 = CIRCLE ( 'NONE', #32, 1.200000000000000400 ) ;
#44 = CALENDAR_DATE ( 2021, 16, 11 ) ;
#45 = PERSON_AND_ORGANIZATION ( #165, #72 ) ;
#46 = ADVANCED_FACE ( 'NONE', ( #70, #218 ), #215, .T. ) ;
#47 = PERSON_AND_ORGANIZATION ( #165, #72 ) ;
#48 = LOCAL_TIME ( 16, 45, 12.00000000000000000, #49 ) ;
#49 = COORDINATED_UNIVERSAL_TIME_OFFSET ( 1, 0, .AHEAD. ) ;
#50 = EDGE_LOOP ( 'NONE', ( #120 ) ) ;
#51 = APPROVAL_ROLE ( '' ) ;
#52 = EDGE_LOOP ( 'NONE', ( #1 ) ) ;
#53 = ORIENTED_EDGE ( 'NONE', *, *, #194, .T. ) ;
#54 = FACE_OUTER_BOUND ( 'NONE', #119, .T. ) ;
#55 = VERTEX_POINT ( 'NONE', #26 ) ;
#56 = AXIS2_PLACEMENT_3D ( 'NONE', #213, #200, #217 ) ;
#57 = DIRECTION ( 'NONE',  ( -4.275831445896958607E-31, -1.000000000000000000, -1.224646799147353207E-16 ) ) ;
#58 = CIRCLE ( 'NONE', #100, 1.199999999999992184 ) ;
#59 = DIRECTION ( 'NONE',  ( 3.491481338843133355E-15, -1.224646799147353207E-16, 1.000000000000000000 ) ) ;
#60 = CC_DESIGN_PERSON_AND_ORGANIZATION_ASSIGNMENT ( #80, #10, ( #198 ) ) ;
#61 = DIRECTION ( 'NONE',  ( -3.491481338843133355E-15, 1.224646799147353207E-16, -1.000000000000000000 ) ) ;
#62 = APPROVAL_ROLE ( '' ) ;
#63 = CIRCLE ( 'NONE', #90, 1.200000000000000400 ) ;
#64 = PERSON_AND_ORGANIZATION_ROLE ( 'classification_officer' ) ;
#65 = MANIFOLD_SOLID_BREP ( 'Corps-Déplacer/Copier1[2]', #71 ) ;
#66 = DATE_TIME_ROLE ( 'creation_date' ) ;
#67 = FACE_BOUND ( 'NONE', #193, .T. ) ;
#68 = SHAPE_DEFINITION_REPRESENTATION ( #123, #34 ) ;
#69 = CARTESIAN_POINT ( 'NONE',  ( 2.094888803305879698E-14, 0.0000000000000000000, 5.999999999999999112 ) ) ;
#70 = FACE_OUTER_BOUND ( 'NONE', #52, .T. ) ;
#71 = CLOSED_SHELL ( 'NONE', ( #108, #38, #216 ) ) ;
#72 = ORGANIZATION ( 'UNSPECIFIED', 'UNSPECIFIED', '' ) ;
#73 = LOCAL_TIME ( 16, 45, 12.00000000000000000, #184 ) ;
#74 = FACE_OUTER_BOUND ( 'NONE', #50, .T. ) ;
#75 = CARTESIAN_POINT ( 'NONE',  ( 1.326762908760390170E-13, -4.653657836759941152E-15, 37.99999999999999289 ) ) ;
#76 = CARTESIAN_POINT ( 'NONE',  ( 2.094888803305880013E-14, 1.124819836996383490E-32, 6.000000000000000000 ) ) ;
#77 = PERSON_AND_ORGANIZATION_ROLE ( 'creator' ) ;
#78 = APPROVAL ( #30, 'UNSPECIFIED' ) ;
#79 = APPROVAL_STATUS ( 'not_yet_approved' ) ;
#80 = PERSON_AND_ORGANIZATION ( #165, #72 ) ;
#81 = DATE_AND_TIME ( #44, #182 ) ;
#82 = CLOSED_SHELL ( 'NONE', ( #46, #36, #116, #138, #41 ) ) ;
#83 = CC_DESIGN_PERSON_AND_ORGANIZATION_ASSIGNMENT ( #173, #77, ( #22 ) ) ;
#84 = DIRECTION ( 'NONE',  ( -4.285855558155653280E-31, -1.000000000000000000, -1.227517819005651059E-16 ) ) ;
#85 = ORIENTED_EDGE ( 'NONE', *, *, #132, .T. ) ;
#86 = CARTESIAN_POINT ( 'NONE',  ( 2.852628742434043458E-14, -2.664024771102657326E-16, 8.170253441421033713 ) ) ;
#87 = DIRECTION ( 'NONE',  ( -4.285855558155652404E-31, -1.000000000000000000, -1.227517819005651059E-16 ) ) ;
#88 = LOCAL_TIME ( 16, 45, 12.00000000000000000, #169 ) ;
#89 = PLANE ( 'NONE',  #192 ) ;
#90 = AXIS2_PLACEMENT_3D ( 'NONE', #127, #137, #37 ) ;
#91 = VERTEX_POINT ( 'NONE', #110 ) ;
#92 = VERTEX_POINT ( 'NONE', #105 ) ;
#93 = PRODUCT_RELATED_PRODUCT_CATEGORY ( 'detail', '', ( #198 ) ) ;
#94 = CARTESIAN_POINT ( 'NONE',  ( 0.0000000000000000000, 0.0000000000000000000, 0.0000000000000000000 ) ) ;
#95 = ORIENTED_EDGE ( 'NONE', *, *, #97, .F. ) ;
#96 = APPROVAL_ROLE ( '' ) ;
#97 = EDGE_CURVE ( 'NONE', #109, #109, #142, .T. ) ;
#98 = FACE_OUTER_BOUND ( 'NONE', #156, .T. ) ;
#99 = APPROVAL_DATE_TIME ( #171, #208 ) ;
#100 = AXIS2_PLACEMENT_3D ( 'NONE', #75, #61, #42 ) ;
#101 = CYLINDRICAL_SURFACE ( 'NONE', #149, 1.199999999999999734 ) ;
#102 = ORIENTED_EDGE ( 'NONE', *, *, #106, .T. ) ;
#103 = ORIENTED_EDGE ( 'NONE', *, *, #106, .F. ) ;
#104 = LOCAL_TIME ( 16, 45, 12.00000000000000000, #221 ) ;
#105 = CARTESIAN_POINT ( 'NONE',  ( 1.316288464743860707E-13, 1.499999999999987566, 37.69999999999998153 ) ) ;
#106 = EDGE_CURVE ( 'NONE', #55, #55, #128, .T. ) ;
#107 = DIRECTION ( 'NONE',  ( 4.275831445896958607E-31, 1.000000000000000000, 1.224646799147353207E-16 ) ) ;
#108 = ADVANCED_FACE ( 'NONE', ( #21 ), #126, .T. ) ;
#109 = VERTEX_POINT ( 'NONE', #181 ) ;
#110 = CARTESIAN_POINT ( 'NONE',  ( 1.326762908760390170E-13, 1.199999999999987521, 37.99999999999999289 ) ) ;
#111 = APPROVAL ( #203, 'UNSPECIFIED' ) ;
#112 =( NAMED_UNIT ( * ) PLANE_ANGLE_UNIT ( ) SI_UNIT ( $, .RADIAN. ) );
#113 =( GEOMETRIC_REPRESENTATION_CONTEXT ( 3 ) GLOBAL_UNCERTAINTY_ASSIGNED_CONTEXT ( ( #147 ) ) GLOBAL_UNIT_ASSIGNED_CONTEXT ( ( #23, #112, #168 ) ) REPRESENTATION_CONTEXT ( 'NONE', 'WORKASPACE' ) );
#114 = DATE_AND_TIME ( #129, #73 ) ;
#115 = DESIGN_CONTEXT ( 'detailed design', #140, 'design' ) ;
#116 = ADVANCED_FACE ( 'NONE', ( #74 ), #2, .F. ) ;
#117 = CALENDAR_DATE ( 2021, 16, 11 ) ;
#118 = EDGE_LOOP ( 'NONE', ( #170 ) ) ;
#119 = EDGE_LOOP ( 'NONE', ( #211 ) ) ;
#120 = ORIENTED_EDGE ( 'NONE', *, *, #132, .F. ) ;
#121 = DIRECTION ( 'NONE',  ( 3.491481338843133355E-15, -1.227517819005651059E-16, 1.000000000000000000 ) ) ;
#122 = CARTESIAN_POINT ( 'NONE',  ( 2.094888803305879698E-14, -1.200000000000001066, 5.999999999999999112 ) ) ;
#123 = PRODUCT_DEFINITION_SHAPE ( 'NONE', 'NONE',  #22 ) ;
#124 = CONICAL_SURFACE ( 'NONE', #15, 1.199999999999992184, 0.7853981633974338461 ) ;
#125 = CC_DESIGN_DATE_AND_TIME_ASSIGNMENT ( #114, #187, ( #219 ) ) ;
#126 = PLANE ( 'NONE',  #139 ) ;
#127 = CARTESIAN_POINT ( 'NONE',  ( 2.094888803305879698E-14, -7.365106914033905366E-16, 5.999999999999999112 ) ) ;
#128 = CIRCLE ( 'NONE', #186, 1.199999999999999289 ) ;
#129 = CALENDAR_DATE ( 2021, 16, 11 ) ;
#130 = PERSON_AND_ORGANIZATION ( #165, #72 ) ;
#131 = CALENDAR_DATE ( 2021, 16, 11 ) ;
#132 = EDGE_CURVE ( 'NONE', #91, #91, #58, .T. ) ;
#133 = APPLICATION_PROTOCOL_DEFINITION ( 'international standard', 'config_control_design', 1994, #179 ) ;
#134 = CARTESIAN_POINT ( 'NONE',  ( 1.326762908760390170E-13, -4.653657836759941152E-15, 37.99999999999999289 ) ) ;
#135 = MANIFOLD_SOLID_BREP ( 'Corps-Déplacer/Copier1[1]', #82 ) ;
#136 = AXIS2_PLACEMENT_3D ( 'NONE', #157, #178, #107 ) ;
#137 = DIRECTION ( 'NONE',  ( 3.491481338843133355E-15, -1.227517819005651059E-16, 1.000000000000000000 ) ) ;
#138 = ADVANCED_FACE ( 'NONE', ( #212, #54 ), #24, .F. ) ;
#139 = AXIS2_PLACEMENT_3D ( 'NONE', #8, #25, #57 ) ;
#140 = APPLICATION_CONTEXT ( 'configuration controlled 3d designs of mechanical parts and assemblies' ) ;
#141 = CARTESIAN_POINT ( 'NONE',  ( -5.143026669786780257E-31, -4.467482701150651491E-33, -1.473021382806779841E-16 ) ) ;
#142 = CIRCLE ( 'NONE', #155, 1.499999999999990008 ) ;
#143 = DIRECTION ( 'NONE',  ( -3.491481338843133355E-15, 1.227517819005651059E-16, -1.000000000000000000 ) ) ;
#144 = DIRECTION ( 'NONE',  ( -4.347612056767884799E-31, -1.000000000000000000, -1.227517819005651059E-16 ) ) ;
#145 = PERSON_AND_ORGANIZATION ( #165, #72 ) ;
#146 = DIRECTION ( 'NONE',  ( 1.000000000000000000, 0.0000000000000000000, 0.0000000000000000000 ) ) ;
#147 = UNCERTAINTY_MEASURE_WITH_UNIT (LENGTH_MEASURE( 1.000000000000000082E-05 ), #23, 'distance_accuracy_value', 'NONE');
#148 = PERSON_AND_ORGANIZATION_ROLE ( 'design_supplier' ) ;
#149 = AXIS2_PLACEMENT_3D ( 'NONE', #172, #14, #84 ) ;
#150 = APPROVAL_DATE_TIME ( #81, #78 ) ;
#151 = PLANE ( 'NONE',  #159 ) ;
#152 = EDGE_CURVE ( 'NONE', #183, #183, #63, .T. ) ;
#153 = CC_DESIGN_PERSON_AND_ORGANIZATION_ASSIGNMENT ( #145, #220, ( #176 ) ) ;
#154 = EDGE_LOOP ( 'NONE', ( #33 ) ) ;
#155 = AXIS2_PLACEMENT_3D ( 'NONE', #86, #143, #3 ) ;
#156 = EDGE_LOOP ( 'NONE', ( #29 ) ) ;
#157 = CARTESIAN_POINT ( 'NONE',  ( 1.326762908760390170E-13, 8.998558695971017012E-33, 37.99999999999999289 ) ) ;
#158 = DIRECTION ( 'NONE',  ( -3.491481338843133355E-15, 1.224646799147353207E-16, -1.000000000000000000 ) ) ;
#159 = AXIS2_PLACEMENT_3D ( 'NONE', #76, #161, #5 ) ;
#160 = CC_DESIGN_PERSON_AND_ORGANIZATION_ASSIGNMENT ( #47, #148, ( #176 ) ) ;
#161 = DIRECTION ( 'NONE',  ( 3.491481338843133355E-15, -1.224646799147353207E-16, 1.000000000000000000 ) ) ;
#162 = DIRECTION ( 'NONE',  ( 3.491481338843133355E-15, -1.227517819005651059E-16, 1.000000000000000000 ) ) ;
#163 = DIRECTION ( 'NONE',  ( -4.275831445896958607E-31, -1.000000000000000000, -1.224646799147353207E-16 ) ) ;
#164 = MECHANICAL_CONTEXT ( 'NONE', #179, 'mechanical' ) ;
#165 = PERSON ( 'UNSPECIFIED', 'UNSPECIFIED', 'UNSPECIFIED', ('UNSPECIFIED'), ('UNSPECIFIED'), ('UNSPECIFIED') ) ;
#166 = EDGE_CURVE ( 'NONE', #92, #92, #28, .T. ) ;
#167 = APPROVAL_PERSON_ORGANIZATION ( #206, #111, #62 ) ;
#168 =( NAMED_UNIT ( * ) SI_UNIT ( $, .STERADIAN. ) SOLID_ANGLE_UNIT ( ) );
#169 = COORDINATED_UNIVERSAL_TIME_OFFSET ( 1, 0, .AHEAD. ) ;
#170 = ORIENTED_EDGE ( 'NONE', *, *, #152, .T. ) ;
#171 = DATE_AND_TIME ( #9, #48 ) ;
#172 = CARTESIAN_POINT ( 'NONE',  ( -6.413731847436034514E-31, 0.0000000000000000000, -1.836965810494968570E-16 ) ) ;
#173 = PERSON_AND_ORGANIZATION ( #165, #72 ) ;
#174 = FACE_OUTER_BOUND ( 'NONE', #12, .T. ) ;
#175 = EDGE_LOOP ( 'NONE', ( #95 ) ) ;
#176 = PRODUCT_DEFINITION_FORMATION_WITH_SPECIFIED_SOURCE ( 'ANY', '', #198, .NOT_KNOWN. ) ;
#177 = VERTEX_POINT ( 'NONE', #122 ) ;
#178 = DIRECTION ( 'NONE',  ( -3.491481338843133355E-15, 1.224646799147353207E-16, -1.000000000000000000 ) ) ;
#179 = APPLICATION_CONTEXT ( 'configuration controlled 3d designs of mechanical parts and assemblies' ) ;
#180 = CARTESIAN_POINT ( 'NONE',  ( 2.094888803305879698E-14, -7.365106914033905366E-16, 5.999999999999999112 ) ) ;
#181 = CARTESIAN_POINT ( 'NONE',  ( 2.852628742434043458E-14, 1.499999999999989786, 8.170253441421033713 ) ) ;
#182 = LOCAL_TIME ( 16, 45, 12.00000000000000000, #209 ) ;
#183 = VERTEX_POINT ( 'NONE', #27 ) ;
#184 = COORDINATED_UNIVERSAL_TIME_OFFSET ( 1, 0, .AHEAD. ) ;
#185 = AXIS2_PLACEMENT_3D ( 'NONE', #69, #162, #144 ) ;
#186 = AXIS2_PLACEMENT_3D ( 'NONE', #141, #7, #87 ) ;
#187 = DATE_TIME_ROLE ( 'classification_date' ) ;
#188 = SECURITY_CLASSIFICATION_LEVEL ( 'unclassified' ) ;
#189 = DIRECTION ( 'NONE',  ( 0.0000000000000000000, 1.000000000000000000, 0.0000000000000000000 ) ) ;
#190 = CC_DESIGN_DATE_AND_TIME_ASSIGNMENT ( #16, #66, ( #22 ) ) ;
#191 = EDGE_LOOP ( 'NONE', ( #53 ) ) ;
#192 = AXIS2_PLACEMENT_3D ( 'NONE', #35, #59, #163 ) ;
#193 = EDGE_LOOP ( 'NONE', ( #85 ) ) ;
#194 = EDGE_CURVE ( 'NONE', #177, #177, #43, .T. ) ;
#195 = FACE_OUTER_BOUND ( 'NONE', #210, .T. ) ;
#196 = DIRECTION ( 'NONE',  ( 4.275831445896959482E-31, 1.000000000000000000, 1.224646799147353207E-16 ) ) ;
#197 = CARTESIAN_POINT ( 'NONE',  ( 0.0000000000000000000, 0.0000000000000000000, 0.0000000000000000000 ) ) ;
#198 = PRODUCT ( '966148', '966148', '', ( #164 ) ) ;
#199 = CC_DESIGN_APPROVAL ( #111, ( #176 ) ) ;
#200 = DIRECTION ( 'NONE',  ( -3.491481338843133355E-15, 1.224646799147353207E-16, -1.000000000000000000 ) ) ;
#201 = CC_DESIGN_APPROVAL ( #208, ( #22 ) ) ;
#202 = PERSON_AND_ORGANIZATION ( #165, #72 ) ;
#203 = APPROVAL_STATUS ( 'not_yet_approved' ) ;
#204 = APPROVAL_DATE_TIME ( #11, #111 ) ;
#205 = AXIS2_PLACEMENT_3D ( 'NONE', #197, #158, #196 ) ;
#206 = PERSON_AND_ORGANIZATION ( #165, #72 ) ;
#207 = DIRECTION ( 'NONE',  ( -3.491481338843133355E-15, 1.224646799147353207E-16, -1.000000000000000000 ) ) ;
#208 = APPROVAL ( #79, 'UNSPECIFIED' ) ;
#209 = COORDINATED_UNIVERSAL_TIME_OFFSET ( 1, 0, .AHEAD. ) ;
#210 = EDGE_LOOP ( 'NONE', ( #103 ) ) ;
#211 = ORIENTED_EDGE ( 'NONE', *, *, #97, .T. ) ;
#212 = FACE_OUTER_BOUND ( 'NONE', #191, .T. ) ;
#213 = CARTESIAN_POINT ( 'NONE',  ( 1.316288464743860707E-13, -4.616918432785519503E-15, 37.69999999999998153 ) ) ;
#214 = CC_DESIGN_SECURITY_CLASSIFICATION ( #219, ( #176 ) ) ;
#215 = CYLINDRICAL_SURFACE ( 'NONE', #205, 1.499999999999990008 ) ;
#216 = ADVANCED_FACE ( 'NONE', ( #195 ), #89, .F. ) ;
#217 = DIRECTION ( 'NONE',  ( 0.0000000000000000000, 1.000000000000000000, 0.0000000000000000000 ) ) ;
#218 = FACE_OUTER_BOUND ( 'NONE', #175, .T. ) ;
#219 = SECURITY_CLASSIFICATION ( '', '', #188 ) ;
#220 = PERSON_AND_ORGANIZATION_ROLE ( 'creator' ) ;
#221 = COORDINATED_UNIVERSAL_TIME_OFFSET ( 1, 0, .AHEAD. ) ;
#222 = DIRECTION ( 'NONE',  ( 0.0000000000000000000, 0.0000000000000000000, 1.000000000000000000 ) ) ;
#223 = EDGE_LOOP ( 'NONE', ( #19 ) ) ;
ENDSEC;
END-ISO-10303-21;
