ISO-10303-21;
HEADER;
FILE_DESCRIPTION (( 'STEP AP203' ),
    '1' );
FILE_NAME ('966147.step',
    '2021-11-16T15:45:11',
    ( '' ),
    ( '' ),
    'SwSTEP 2.0',
    'SolidWorks 2019',
    '' );
FILE_SCHEMA (( 'CONFIG_CONTROL_DESIGN' ));
ENDSEC;

DATA;
#1 = CC_DESIGN_DATE_AND_TIME_ASSIGNMENT ( #125, #107, ( #212 ) ) ;
#2 = CARTESIAN_POINT ( 'NONE',  ( 0.0000000000000000000, 0.0000000000000000000, 0.0000000000000000000 ) ) ;
#3 = AXIS2_PLACEMENT_3D ( 'NONE', #37, #21, #112 ) ;
#4 = LOCAL_TIME ( 16, 45, 11.00000000000000000, #120 ) ;
#5 = CARTESIAN_POINT ( 'NONE',  ( -6.413731847436034514E-31, 0.0000000000000000000, -1.836965810494968570E-16 ) ) ;
#6 = FACE_OUTER_BOUND ( 'NONE', #183, .T. ) ;
#7 = AXIS2_PLACEMENT_3D ( 'NONE', #129, #196, #76 ) ;
#8 = ORIENTED_EDGE ( 'NONE', *, *, #58, .T. ) ;
#9 = ADVANCED_FACE ( 'NONE', ( #152, #218 ), #136, .T. ) ;
#10 = EDGE_LOOP ( 'NONE', ( #79 ) ) ;
#11 = ORIENTED_EDGE ( 'NONE', *, *, #134, .T. ) ;
#12 = TOROIDAL_SURFACE ( 'NONE', #3, 9.150000000000000355, 8.000000000000000000 ) ;
#13 = CIRCLE ( 'NONE', #32, 1.199999999999992184 ) ;
#14 =( NAMED_UNIT ( * ) SI_UNIT ( $, .STERADIAN. ) SOLID_ANGLE_UNIT ( ) );
#15 = ADVANCED_FACE ( 'NONE', ( #85, #209 ), #75, .T. ) ;
#16 = ADVANCED_BREP_SHAPE_REPRESENTATION ( '966147', ( #118, #41, #29 ), #140 ) ;
#17 = LOCAL_TIME ( 16, 45, 11.00000000000000000, #56 ) ;
#18 = VERTEX_POINT ( 'NONE', #156 ) ;
#19 = CC_DESIGN_PERSON_AND_ORGANIZATION_ASSIGNMENT ( #126, #108, ( #87 ) ) ;
#20 = PRODUCT_DEFINITION_SHAPE ( 'NONE', 'NONE',  #216 ) ;
#21 = DIRECTION ( 'NONE',  ( 3.491481338843133355E-15, -1.227517819005651059E-16, 1.000000000000000000 ) ) ;
#22 = DIRECTION ( 'NONE',  ( 0.0000000000000000000, -1.000000000000000000, 0.0000000000000000000 ) ) ;
#23 = DIRECTION ( 'NONE',  ( 3.491481338843133355E-15, -1.224646799147353207E-16, 1.000000000000000000 ) ) ;
#24 = PLANE ( 'NONE',  #135 ) ;
#25 = CC_DESIGN_APPROVAL ( #62, ( #216 ) ) ;
#26 = EDGE_CURVE ( 'NONE', #51, #51, #95, .T. ) ;
#27 = ORIENTED_EDGE ( 'NONE', *, *, #26, .F. ) ;
#28 = EDGE_LOOP ( 'NONE', ( #77 ) ) ;
#29 = AXIS2_PLACEMENT_3D ( 'NONE', #2, #70, #71 ) ;
#30 = APPROVAL_ROLE ( '' ) ;
#31 = VERTEX_POINT ( 'NONE', #106 ) ;
#32 = AXIS2_PLACEMENT_3D ( 'NONE', #36, #141, #213 ) ;
#33 = FACE_OUTER_BOUND ( 'NONE', #167, .T. ) ;
#34 = FACE_OUTER_BOUND ( 'NONE', #132, .T. ) ;
#35 = CC_DESIGN_PERSON_AND_ORGANIZATION_ASSIGNMENT ( #144, #116, ( #212 ) ) ;
#36 = CARTESIAN_POINT ( 'NONE',  ( 1.326762908760390170E-13, -4.653657836759941152E-15, 37.99999999999999289 ) ) ;
#37 = CARTESIAN_POINT ( 'NONE',  ( 2.007601769834801364E-14, 0.0000000000000000000, 5.749999999999999112 ) ) ;
#38 = APPROVAL_STATUS ( 'not_yet_approved' ) ;
#39 = DIRECTION ( 'NONE',  ( 3.491481338843133355E-15, -1.224646799147353207E-16, 1.000000000000000000 ) ) ;
#40 = UNCERTAINTY_MEASURE_WITH_UNIT (LENGTH_MEASURE( 1.000000000000000082E-05 ), #138, 'distance_accuracy_value', 'NONE');
#41 = MANIFOLD_SOLID_BREP ( 'Corps-Déplacer/Copier1[2]', #181 ) ;
#42 = EDGE_LOOP ( 'NONE', ( #150 ) ) ;
#43 = PERSON_AND_ORGANIZATION ( #111, #94 ) ;
#44 = AXIS2_PLACEMENT_3D ( 'NONE', #198, #73, #54 ) ;
#45 = APPROVAL_PERSON_ORGANIZATION ( #161, #101, #202 ) ;
#46 = EDGE_LOOP ( 'NONE', ( #185 ) ) ;
#47 = PERSON_AND_ORGANIZATION_ROLE ( 'design_owner' ) ;
#48 = ADVANCED_FACE ( 'NONE', ( #33 ), #195, .F. ) ;
#49 = PRODUCT ( '966147', '966147', '', ( #83 ) ) ;
#50 = AXIS2_PLACEMENT_3D ( 'NONE', #163, #145, #215 ) ;
#51 = VERTEX_POINT ( 'NONE', #66 ) ;
#52 = LOCAL_TIME ( 16, 45, 11.00000000000000000, #63 ) ;
#53 = CALENDAR_DATE ( 2021, 16, 11 ) ;
#54 = DIRECTION ( 'NONE',  ( -4.275831445896958607E-31, -1.000000000000000000, -1.224646799147353207E-16 ) ) ;
#55 = DIRECTION ( 'NONE',  ( 3.491481338843133355E-15, -1.227517819005651059E-16, 1.000000000000000000 ) ) ;
#56 = COORDINATED_UNIVERSAL_TIME_OFFSET ( 1, 0, .AHEAD. ) ;
#57 = CARTESIAN_POINT ( 'NONE',  ( 2.007601769834801364E-14, -7.058227459282492724E-16, 5.749999999999999112 ) ) ;
#58 = EDGE_CURVE ( 'NONE', #210, #210, #223, .T. ) ;
#59 = DIRECTION ( 'NONE',  ( 0.0000000000000000000, 1.000000000000000000, 0.0000000000000000000 ) ) ;
#60 = FACE_OUTER_BOUND ( 'NONE', #64, .T. ) ;
#61 = CARTESIAN_POINT ( 'NONE',  ( 2.007601769834801364E-14, -7.058227459282492724E-16, 5.749999999999999112 ) ) ;
#62 = APPROVAL ( #173, 'UNSPECIFIED' ) ;
#63 = COORDINATED_UNIVERSAL_TIME_OFFSET ( 1, 0, .AHEAD. ) ;
#64 = EDGE_LOOP ( 'NONE', ( #222 ) ) ;
#65 = CIRCLE ( 'NONE', #50, 1.149999999999999023 ) ;
#66 = CARTESIAN_POINT ( 'NONE',  ( 2.007601769834801364E-14, -1.150000000000001243, 5.749999999999999112 ) ) ;
#67 = EDGE_CURVE ( 'NONE', #105, #105, #124, .T. ) ;
#68 = CARTESIAN_POINT ( 'NONE',  ( 0.0000000000000000000, 0.0000000000000000000, 0.0000000000000000000 ) ) ;
#69 = PRODUCT_RELATED_PRODUCT_CATEGORY ( 'detail', '', ( #49 ) ) ;
#70 = DIRECTION ( 'NONE',  ( 0.0000000000000000000, 0.0000000000000000000, 1.000000000000000000 ) ) ;
#71 = DIRECTION ( 'NONE',  ( 1.000000000000000000, 0.0000000000000000000, 0.0000000000000000000 ) ) ;
#72 = CARTESIAN_POINT ( 'NONE',  ( 1.326762908760390170E-13, 8.998558695971017012E-33, 37.99999999999999289 ) ) ;
#73 = DIRECTION ( 'NONE',  ( 3.491481338843133355E-15, -1.224646799147353207E-16, 1.000000000000000000 ) ) ;
#74 = CARTESIAN_POINT ( 'NONE',  ( 2.007601769834801364E-14, 1.124819836996383490E-32, 5.750000000000000000 ) ) ;
#75 = CONICAL_SURFACE ( 'NONE', #104, 1.199999999999992184, 0.7853981633974338461 ) ;
#76 = DIRECTION ( 'NONE',  ( 0.0000000000000000000, 1.000000000000000000, 0.0000000000000000000 ) ) ;
#77 = ORIENTED_EDGE ( 'NONE', *, *, #166, .F. ) ;
#78 = CC_DESIGN_PERSON_AND_ORGANIZATION_ASSIGNMENT ( #117, #92, ( #87 ) ) ;
#79 = ORIENTED_EDGE ( 'NONE', *, *, #67, .F. ) ;
#80 = CLOSED_SHELL ( 'NONE', ( #9, #15, #48, #86, #93 ) ) ;
#81 = CC_DESIGN_SECURITY_CLASSIFICATION ( #212, ( #87 ) ) ;
#82 = DIRECTION ( 'NONE',  ( -3.491481338843133355E-15, 1.224646799147353207E-16, -1.000000000000000000 ) ) ;
#83 = MECHANICAL_CONTEXT ( 'NONE', #190, 'mechanical' ) ;
#84 = APPROVAL_ROLE ( '' ) ;
#85 = FACE_OUTER_BOUND ( 'NONE', #42, .T. ) ;
#86 = ADVANCED_FACE ( 'NONE', ( #60, #34 ), #12, .F. ) ;
#87 = PRODUCT_DEFINITION_FORMATION_WITH_SPECIFIED_SOURCE ( 'ANY', '', #49, .NOT_KNOWN. ) ;
#88 = CARTESIAN_POINT ( 'NONE',  ( 1.316288464743860707E-13, 1.499999999999987566, 37.69999999999998153 ) ) ;
#89 = DATE_AND_TIME ( #122, #17 ) ;
#90 = CARTESIAN_POINT ( 'NONE',  ( 2.007601769834801364E-14, -1.150000000000001243, 5.749999999999999112 ) ) ;
#91 = DIRECTION ( 'NONE',  ( -3.491481338843133355E-15, 1.224646799147353207E-16, -1.000000000000000000 ) ) ;
#92 = PERSON_AND_ORGANIZATION_ROLE ( 'design_supplier' ) ;
#93 = ADVANCED_FACE ( 'NONE', ( #160 ), #180, .F. ) ;
#94 = ORGANIZATION ( 'UNSPECIFIED', 'UNSPECIFIED', '' ) ;
#95 = CIRCLE ( 'NONE', #206, 1.150000000000000577 ) ;
#96 = DESIGN_CONTEXT ( 'detailed design', #169, 'design' ) ;
#97 = ADVANCED_FACE ( 'NONE', ( #6 ), #24, .T. ) ;
#98 = ORIENTED_EDGE ( 'NONE', *, *, #134, .F. ) ;
#99 = APPROVAL_DATE_TIME ( #191, #62 ) ;
#100 = APPROVAL_PERSON_ORGANIZATION ( #103, #62, #84 ) ;
#101 = APPROVAL ( #38, 'UNSPECIFIED' ) ;
#102 = DIRECTION ( 'NONE',  ( 4.275831445896959482E-31, 1.000000000000000000, 1.224646799147353207E-16 ) ) ;
#103 = PERSON_AND_ORGANIZATION ( #111, #94 ) ;
#104 = AXIS2_PLACEMENT_3D ( 'NONE', #123, #148, #142 ) ;
#105 = VERTEX_POINT ( 'NONE', #193 ) ;
#106 = CARTESIAN_POINT ( 'NONE',  ( -9.857467783757993084E-31, -1.149999999999999023, -2.823290983712994427E-16 ) ) ;
#107 = DATE_TIME_ROLE ( 'classification_date' ) ;
#108 = PERSON_AND_ORGANIZATION_ROLE ( 'creator' ) ;
#109 = DIRECTION ( 'NONE',  ( 4.275831445896958607E-31, 1.000000000000000000, 1.224646799147353207E-16 ) ) ;
#110 = PLANE ( 'NONE',  #208 ) ;
#111 = PERSON ( 'UNSPECIFIED', 'UNSPECIFIED', 'UNSPECIFIED', ('UNSPECIFIED'), ('UNSPECIFIED'), ('UNSPECIFIED') ) ;
#112 = DIRECTION ( 'NONE',  ( -4.347792104868795754E-31, -1.000000000000000000, -1.227517819005651059E-16 ) ) ;
#113 = EDGE_LOOP ( 'NONE', ( #8 ) ) ;
#114 = DATE_TIME_ROLE ( 'creation_date' ) ;
#115 = AXIS2_PLACEMENT_3D ( 'NONE', #68, #82, #102 ) ;
#116 = PERSON_AND_ORGANIZATION_ROLE ( 'classification_officer' ) ;
#117 = PERSON_AND_ORGANIZATION ( #111, #94 ) ;
#118 = MANIFOLD_SOLID_BREP ( 'Corps-Déplacer/Copier1[1]', #80 ) ;
#119 = APPLICATION_PROTOCOL_DEFINITION ( 'international standard', 'config_control_design', 1994, #190 ) ;
#120 = COORDINATED_UNIVERSAL_TIME_OFFSET ( 1, 0, .AHEAD. ) ;
#121 = PERSON_AND_ORGANIZATION ( #111, #94 ) ;
#122 = CALENDAR_DATE ( 2021, 16, 11 ) ;
#123 = CARTESIAN_POINT ( 'NONE',  ( 1.326762908760390170E-13, -4.653657836759941152E-15, 37.99999999999999289 ) ) ;
#124 = CIRCLE ( 'NONE', #7, 1.499999999999990008 ) ;
#125 = DATE_AND_TIME ( #53, #147 ) ;
#126 = PERSON_AND_ORGANIZATION ( #111, #94 ) ;
#127 = DIRECTION ( 'NONE',  ( 3.491481338843133355E-15, -1.227517819005651059E-16, 1.000000000000000000 ) ) ;
#128 = DIRECTION ( 'NONE',  ( -4.275831445896958607E-31, -1.000000000000000000, -1.224646799147353207E-16 ) ) ;
#129 = CARTESIAN_POINT ( 'NONE',  ( 2.824750139003788715E-14, -2.872890004500770586E-16, 8.090405947693653843 ) ) ;
#130 = DIRECTION ( 'NONE',  ( 0.0000000000000000000, -1.000000000000000000, 0.0000000000000000000 ) ) ;
#131 = LOCAL_TIME ( 16, 45, 11.00000000000000000, #133 ) ;
#132 = EDGE_LOOP ( 'NONE', ( #186 ) ) ;
#133 = COORDINATED_UNIVERSAL_TIME_OFFSET ( 1, 0, .AHEAD. ) ;
#134 = EDGE_CURVE ( 'NONE', #18, #18, #13, .T. ) ;
#135 = AXIS2_PLACEMENT_3D ( 'NONE', #74, #39, #128 ) ;
#136 = CYLINDRICAL_SURFACE ( 'NONE', #115, 1.499999999999990008 ) ;
#137 = VERTEX_POINT ( 'NONE', #90 ) ;
#138 =( LENGTH_UNIT ( ) NAMED_UNIT ( * ) SI_UNIT ( .MILLI., .METRE. ) );
#139 = AXIS2_PLACEMENT_3D ( 'NONE', #57, #127, #22 ) ;
#140 =( GEOMETRIC_REPRESENTATION_CONTEXT ( 3 ) GLOBAL_UNCERTAINTY_ASSIGNED_CONTEXT ( ( #40 ) ) GLOBAL_UNIT_ASSIGNED_CONTEXT ( ( #138, #159, #14 ) ) REPRESENTATION_CONTEXT ( 'NONE', 'WORKASPACE' ) );
#141 = DIRECTION ( 'NONE',  ( -3.491481338843133355E-15, 1.224646799147353207E-16, -1.000000000000000000 ) ) ;
#142 = DIRECTION ( 'NONE',  ( 0.0000000000000000000, 1.000000000000000000, 0.0000000000000000000 ) ) ;
#143 = DIRECTION ( 'NONE',  ( 3.491481338843133355E-15, -1.227517819005651059E-16, 1.000000000000000000 ) ) ;
#144 = PERSON_AND_ORGANIZATION ( #111, #94 ) ;
#145 = DIRECTION ( 'NONE',  ( 3.491481338843133355E-15, -1.227517819005651059E-16, 1.000000000000000000 ) ) ;
#146 = FACE_OUTER_BOUND ( 'NONE', #46, .T. ) ;
#147 = LOCAL_TIME ( 16, 45, 11.00000000000000000, #211 ) ;
#148 = DIRECTION ( 'NONE',  ( -3.491481338843133355E-15, 1.224646799147353207E-16, -1.000000000000000000 ) ) ;
#149 = ADVANCED_FACE ( 'NONE', ( #194, #146 ), #214, .T. ) ;
#150 = ORIENTED_EDGE ( 'NONE', *, *, #58, .F. ) ;
#151 = PERSON_AND_ORGANIZATION_ROLE ( 'creator' ) ;
#152 = FACE_OUTER_BOUND ( 'NONE', #113, .T. ) ;
#153 = CIRCLE ( 'NONE', #139, 1.150000000000000577 ) ;
#154 = APPROVAL_PERSON_ORGANIZATION ( #43, #158, #30 ) ;
#155 = EDGE_CURVE ( 'NONE', #137, #137, #153, .T. ) ;
#156 = CARTESIAN_POINT ( 'NONE',  ( 1.326762908760390170E-13, 1.199999999999987521, 37.99999999999999289 ) ) ;
#157 = CALENDAR_DATE ( 2021, 16, 11 ) ;
#158 = APPROVAL ( #187, 'UNSPECIFIED' ) ;
#159 =( NAMED_UNIT ( * ) PLANE_ANGLE_UNIT ( ) SI_UNIT ( $, .RADIAN. ) );
#160 = FACE_OUTER_BOUND ( 'NONE', #171, .T. ) ;
#161 = PERSON_AND_ORGANIZATION ( #111, #94 ) ;
#162 = CC_DESIGN_PERSON_AND_ORGANIZATION_ASSIGNMENT ( #121, #47, ( #49 ) ) ;
#163 = CARTESIAN_POINT ( 'NONE',  ( -4.928733891878996542E-31, -5.220882699138851310E-33, -1.411645491856496967E-16 ) ) ;
#164 = CARTESIAN_POINT ( 'NONE',  ( 1.316288464743860707E-13, -4.616918432785519503E-15, 37.69999999999998153 ) ) ;
#165 = AXIS2_PLACEMENT_3D ( 'NONE', #5, #143, #178 ) ;
#166 = EDGE_CURVE ( 'NONE', #31, #31, #65, .T. ) ;
#167 = EDGE_LOOP ( 'NONE', ( #98 ) ) ;
#168 = APPROVAL_DATE_TIME ( #200, #101 ) ;
#169 = APPLICATION_CONTEXT ( 'configuration controlled 3d designs of mechanical parts and assemblies' ) ;
#170 = PERSON_AND_ORGANIZATION ( #111, #94 ) ;
#171 = EDGE_LOOP ( 'NONE', ( #27 ) ) ;
#172 = AXIS2_PLACEMENT_3D ( 'NONE', #164, #91, #59 ) ;
#173 = APPROVAL_STATUS ( 'not_yet_approved' ) ;
#174 = DIRECTION ( 'NONE',  ( -4.275831445896958607E-31, -1.000000000000000000, -1.224646799147353207E-16 ) ) ;
#175 = CC_DESIGN_APPROVAL ( #101, ( #212 ) ) ;
#176 = APPROVAL_DATE_TIME ( #89, #158 ) ;
#177 = DIRECTION ( 'NONE',  ( -3.491481338843133355E-15, 1.224646799147353207E-16, -1.000000000000000000 ) ) ;
#178 = DIRECTION ( 'NONE',  ( -4.285855558155653280E-31, -1.000000000000000000, -1.227517819005651305E-16 ) ) ;
#179 = CARTESIAN_POINT ( 'NONE',  ( -2.137917073001454058E-30, 7.498803648657679327E-32, -6.123237862442165323E-16 ) ) ;
#180 = PLANE ( 'NONE',  #44 ) ;
#181 = CLOSED_SHELL ( 'NONE', ( #97, #149, #189 ) ) ;
#182 = AXIS2_PLACEMENT_3D ( 'NONE', #72, #177, #109 ) ;
#183 = EDGE_LOOP ( 'NONE', ( #219 ) ) ;
#184 = SHAPE_DEFINITION_REPRESENTATION ( #20, #16 ) ;
#185 = ORIENTED_EDGE ( 'NONE', *, *, #155, .F. ) ;
#186 = ORIENTED_EDGE ( 'NONE', *, *, #67, .T. ) ;
#187 = APPROVAL_STATUS ( 'not_yet_approved' ) ;
#188 = ORIENTED_EDGE ( 'NONE', *, *, #166, .T. ) ;
#189 = ADVANCED_FACE ( 'NONE', ( #197 ), #110, .F. ) ;
#190 = APPLICATION_CONTEXT ( 'configuration controlled 3d designs of mechanical parts and assemblies' ) ;
#191 = DATE_AND_TIME ( #157, #4 ) ;
#192 = APPLICATION_PROTOCOL_DEFINITION ( 'international standard', 'config_control_design', 1994, #169 ) ;
#193 = CARTESIAN_POINT ( 'NONE',  ( 2.824750139003788715E-14, 1.499999999999989786, 8.090405947693653843 ) ) ;
#194 = FACE_OUTER_BOUND ( 'NONE', #207, .T. ) ;
#195 = PLANE ( 'NONE',  #182 ) ;
#196 = DIRECTION ( 'NONE',  ( -3.491481338843133355E-15, 1.227517819005651059E-16, -1.000000000000000000 ) ) ;
#197 = FACE_OUTER_BOUND ( 'NONE', #28, .T. ) ;
#198 = CARTESIAN_POINT ( 'NONE',  ( 2.007601769834801364E-14, 1.124819836996383490E-32, 5.750000000000000000 ) ) ;
#199 = CC_DESIGN_DATE_AND_TIME_ASSIGNMENT ( #204, #114, ( #216 ) ) ;
#200 = DATE_AND_TIME ( #220, #52 ) ;
#201 = EDGE_LOOP ( 'NONE', ( #11 ) ) ;
#202 = APPROVAL_ROLE ( '' ) ;
#203 = SECURITY_CLASSIFICATION_LEVEL ( 'unclassified' ) ;
#204 = DATE_AND_TIME ( #221, #131 ) ;
#205 = CC_DESIGN_PERSON_AND_ORGANIZATION_ASSIGNMENT ( #170, #151, ( #216 ) ) ;
#206 = AXIS2_PLACEMENT_3D ( 'NONE', #61, #55, #130 ) ;
#207 = EDGE_LOOP ( 'NONE', ( #188 ) ) ;
#208 = AXIS2_PLACEMENT_3D ( 'NONE', #179, #23, #174 ) ;
#209 = FACE_BOUND ( 'NONE', #201, .T. ) ;
#210 = VERTEX_POINT ( 'NONE', #88 ) ;
#211 = COORDINATED_UNIVERSAL_TIME_OFFSET ( 1, 0, .AHEAD. ) ;
#212 = SECURITY_CLASSIFICATION ( '', '', #203 ) ;
#213 = DIRECTION ( 'NONE',  ( 0.0000000000000000000, 1.000000000000000000, 0.0000000000000000000 ) ) ;
#214 = CYLINDRICAL_SURFACE ( 'NONE', #165, 1.149999999999999911 ) ;
#215 = DIRECTION ( 'NONE',  ( -4.285855558155653280E-31, -1.000000000000000000, -1.227517819005651059E-16 ) ) ;
#216 = PRODUCT_DEFINITION ( 'UNKNOWN', '', #87, #96 ) ;
#217 = CC_DESIGN_APPROVAL ( #158, ( #87 ) ) ;
#218 = FACE_OUTER_BOUND ( 'NONE', #10, .T. ) ;
#219 = ORIENTED_EDGE ( 'NONE', *, *, #155, .T. ) ;
#220 = CALENDAR_DATE ( 2021, 16, 11 ) ;
#221 = CALENDAR_DATE ( 2021, 16, 11 ) ;
#222 = ORIENTED_EDGE ( 'NONE', *, *, #26, .T. ) ;
#223 = CIRCLE ( 'NONE', #172, 1.499999999999992006 ) ;
ENDSEC;
END-ISO-10303-21;
