ISO-10303-21;
HEADER;
FILE_DESCRIPTION (( 'STEP AP203' ),
    '1' );
FILE_NAME ('966146.step',
    '2021-11-16T15:45:10',
    ( '' ),
    ( '' ),
    'SwSTEP 2.0',
    'SolidWorks 2019',
    '' );
FILE_SCHEMA (( 'CONFIG_CONTROL_DESIGN' ));
ENDSEC;

DATA;
#1 = ORIENTED_EDGE ( 'NONE', *, *, #111, .F. ) ;
#2 = DIRECTION ( 'NONE',  ( 0.0000000000000000000, 1.000000000000000000, 0.0000000000000000000 ) ) ;
#3 = PERSON_AND_ORGANIZATION ( #220, #189 ) ;
#4 = CIRCLE ( 'NONE', #97, 1.099999999999999423 ) ;
#5 = DIRECTION ( 'NONE',  ( 3.491481338843133355E-15, -1.227517819005651059E-16, 1.000000000000000000 ) ) ;
#6 = ORIENTED_EDGE ( 'NONE', *, *, #184, .T. ) ;
#7 = PERSON_AND_ORGANIZATION ( #220, #189 ) ;
#8 = EDGE_CURVE ( 'NONE', #19, #19, #4, .T. ) ;
#9 = DIRECTION ( 'NONE',  ( 3.491481338843133355E-15, -1.224646799147353207E-16, 1.000000000000000000 ) ) ;
#10 = FACE_OUTER_BOUND ( 'NONE', #218, .T. ) ;
#11 = CARTESIAN_POINT ( 'NONE',  ( -4.714441113971214579E-31, -5.974282697127041549E-33, -1.350269600906214833E-16 ) ) ;
#12 = CC_DESIGN_DATE_AND_TIME_ASSIGNMENT ( #92, #180, ( #153 ) ) ;
#13 = AXIS2_PLACEMENT_3D ( 'NONE', #211, #165, #182 ) ;
#14 = ADVANCED_BREP_SHAPE_REPRESENTATION ( '966146', ( #114, #116, #100 ), #154 ) ;
#15 = AXIS2_PLACEMENT_3D ( 'NONE', #17, #170, #187 ) ;
#16 = AXIS2_PLACEMENT_3D ( 'NONE', #186, #138, #98 ) ;
#17 = CARTESIAN_POINT ( 'NONE',  ( 2.792486495264541253E-14, -3.066338529075423676E-16, 7.997999199359326461 ) ) ;
#18 = ADVANCED_FACE ( 'NONE', ( #206, #113 ), #183, .T. ) ;
#19 = VERTEX_POINT ( 'NONE', #83 ) ;
#20 = DIRECTION ( 'NONE',  ( 0.0000000000000000000, -1.000000000000000000, 0.0000000000000000000 ) ) ;
#21 = DATE_AND_TIME ( #173, #168 ) ;
#22 = FACE_OUTER_BOUND ( 'NONE', #143, .T. ) ;
#23 = CARTESIAN_POINT ( 'NONE',  ( 0.0000000000000000000, 0.0000000000000000000, 0.0000000000000000000 ) ) ;
#24 = DATE_AND_TIME ( #50, #42 ) ;
#25 = CARTESIAN_POINT ( 'NONE',  ( -2.137917073001454058E-30, 7.498803648657679327E-32, -6.123237862442165323E-16 ) ) ;
#26 = MECHANICAL_CONTEXT ( 'NONE', #172, 'mechanical' ) ;
#27 = EDGE_LOOP ( 'NONE', ( #1 ) ) ;
#28 = COORDINATED_UNIVERSAL_TIME_OFFSET ( 1, 0, .AHEAD. ) ;
#29 = FACE_OUTER_BOUND ( 'NONE', #130, .T. ) ;
#30 = SECURITY_CLASSIFICATION ( '', '', #71 ) ;
#31 = AXIS2_PLACEMENT_3D ( 'NONE', #62, #135, #207 ) ;
#32 = AXIS2_PLACEMENT_3D ( 'NONE', #108, #5, #51 ) ;
#33 = FACE_OUTER_BOUND ( 'NONE', #78, .T. ) ;
#34 = FACE_OUTER_BOUND ( 'NONE', #157, .T. ) ;
#35 = PRODUCT_RELATED_PRODUCT_CATEGORY ( 'detail', '', ( #148 ) ) ;
#36 = CC_DESIGN_SECURITY_CLASSIFICATION ( #30, ( #145 ) ) ;
#37 = PLANE ( 'NONE',  #31 ) ;
#38 = APPROVAL_ROLE ( '' ) ;
#39 = DIRECTION ( 'NONE',  ( -4.275831445896958607E-31, -1.000000000000000000, -1.224646799147353207E-16 ) ) ;
#40 = VERTEX_POINT ( 'NONE', #69 ) ;
#41 = EDGE_CURVE ( 'NONE', #120, #120, #127, .T. ) ;
#42 = LOCAL_TIME ( 16, 45, 10.00000000000000000, #212 ) ;
#43 = COORDINATED_UNIVERSAL_TIME_OFFSET ( 1, 0, .AHEAD. ) ;
#44 = CC_DESIGN_APPROVAL ( #204, ( #145 ) ) ;
#45 = UNCERTAINTY_MEASURE_WITH_UNIT (LENGTH_MEASURE( 1.000000000000000082E-05 ), #124, 'distance_accuracy_value', 'NONE');
#46 = ADVANCED_FACE ( 'NONE', ( #91 ), #161, .F. ) ;
#47 = APPROVAL_PERSON_ORGANIZATION ( #85, #196, #88 ) ;
#48 = ADVANCED_FACE ( 'NONE', ( #104, #73 ), #59, .F. ) ;
#49 = CC_DESIGN_PERSON_AND_ORGANIZATION_ASSIGNMENT ( #142, #53, ( #145 ) ) ;
#50 = CALENDAR_DATE ( 2021, 16, 11 ) ;
#51 = DIRECTION ( 'NONE',  ( 0.0000000000000000000, -1.000000000000000000, 0.0000000000000000000 ) ) ;
#52 = APPROVAL_DATE_TIME ( #58, #204 ) ;
#53 = PERSON_AND_ORGANIZATION_ROLE ( 'design_supplier' ) ;
#54 = PERSON_AND_ORGANIZATION ( #220, #189 ) ;
#55 =( NAMED_UNIT ( * ) PLANE_ANGLE_UNIT ( ) SI_UNIT ( $, .RADIAN. ) );
#56 = LOCAL_TIME ( 16, 45, 10.00000000000000000, #28 ) ;
#57 = CARTESIAN_POINT ( 'NONE',  ( 1.316288464743860707E-13, -4.616918432785519503E-15, 37.69999999999998153 ) ) ;
#58 = DATE_AND_TIME ( #156, #140 ) ;
#59 = TOROIDAL_SURFACE ( 'NONE', #152, 9.099999999999999645, 8.000000000000000000 ) ;
#60 = DIRECTION ( 'NONE',  ( 3.491481338843133355E-15, -1.227517819005651059E-16, 1.000000000000000000 ) ) ;
#61 = CIRCLE ( 'NONE', #223, 1.100000000000000977 ) ;
#62 = CARTESIAN_POINT ( 'NONE',  ( 1.326762908760390170E-13, 8.998558695971017012E-33, 37.99999999999999289 ) ) ;
#63 = EDGE_LOOP ( 'NONE', ( #205 ) ) ;
#64 = CARTESIAN_POINT ( 'NONE',  ( 1.920314736363723345E-14, 1.124819836996383490E-32, 5.500000000000000000 ) ) ;
#65 = DATE_AND_TIME ( #107, #171 ) ;
#66 = AXIS2_PLACEMENT_3D ( 'NONE', #74, #76, #79 ) ;
#67 = DIRECTION ( 'NONE',  ( -4.347973205882576304E-31, -1.000000000000000000, -1.227517819005651059E-16 ) ) ;
#68 = APPROVAL_ROLE ( '' ) ;
#69 = CARTESIAN_POINT ( 'NONE',  ( 2.792486495264541253E-14, 1.499999999999989786, 7.997999199359326461 ) ) ;
#70 = APPLICATION_PROTOCOL_DEFINITION ( 'international standard', 'config_control_design', 1994, #172 ) ;
#71 = SECURITY_CLASSIFICATION_LEVEL ( 'unclassified' ) ;
#72 = CC_DESIGN_PERSON_AND_ORGANIZATION_ASSIGNMENT ( #179, #192, ( #153 ) ) ;
#73 = FACE_OUTER_BOUND ( 'NONE', #155, .T. ) ;
#74 = CARTESIAN_POINT ( 'NONE',  ( -6.413731847436034514E-31, 0.0000000000000000000, -1.836965810494968570E-16 ) ) ;
#75 = EDGE_LOOP ( 'NONE', ( #151 ) ) ;
#76 = DIRECTION ( 'NONE',  ( 3.491481338843133355E-15, -1.227517819005651059E-16, 1.000000000000000000 ) ) ;
#77 = CIRCLE ( 'NONE', #15, 1.499999999999990008 ) ;
#78 = EDGE_LOOP ( 'NONE', ( #208 ) ) ;
#79 = DIRECTION ( 'NONE',  ( -4.285855558155653280E-31, -1.000000000000000000, -1.227517819005651059E-16 ) ) ;
#80 = DIRECTION ( 'NONE',  ( -3.491481338843133355E-15, 1.224646799147353207E-16, -1.000000000000000000 ) ) ;
#81 = EDGE_CURVE ( 'NONE', #216, #216, #134, .T. ) ;
#82 = APPROVAL_PERSON_ORGANIZATION ( #118, #204, #38 ) ;
#83 = CARTESIAN_POINT ( 'NONE',  ( -9.428882227942430909E-31, -1.099999999999999423, -2.700539201812430160E-16 ) ) ;
#84 = PLANE ( 'NONE',  #110 ) ;
#85 = PERSON_AND_ORGANIZATION ( #220, #189 ) ;
#86 = EDGE_CURVE ( 'NONE', #103, #103, #133, .T. ) ;
#87 = PLANE ( 'NONE',  #13 ) ;
#88 = APPROVAL_ROLE ( '' ) ;
#89 = CARTESIAN_POINT ( 'NONE',  ( 1.326762908760390170E-13, 1.199999999999987521, 37.99999999999999289 ) ) ;
#90 = PERSON_AND_ORGANIZATION ( #220, #189 ) ;
#91 = FACE_OUTER_BOUND ( 'NONE', #163, .T. ) ;
#92 = DATE_AND_TIME ( #126, #56 ) ;
#93 = CYLINDRICAL_SURFACE ( 'NONE', #66, 1.100000000000000311 ) ;
#94 = CC_DESIGN_DATE_AND_TIME_ASSIGNMENT ( #21, #176, ( #30 ) ) ;
#95 = DESIGN_CONTEXT ( 'detailed design', #201, 'design' ) ;
#96 = CLOSED_SHELL ( 'NONE', ( #149, #164, #46 ) ) ;
#97 = AXIS2_PLACEMENT_3D ( 'NONE', #11, #60, #222 ) ;
#98 = DIRECTION ( 'NONE',  ( 4.275831445896959482E-31, 1.000000000000000000, 1.224646799147353207E-16 ) ) ;
#99 = CARTESIAN_POINT ( 'NONE',  ( 1.326762908760390170E-13, -4.653657836759941152E-15, 37.99999999999999289 ) ) ;
#100 = AXIS2_PLACEMENT_3D ( 'NONE', #23, #137, #159 ) ;
#101 = COORDINATED_UNIVERSAL_TIME_OFFSET ( 1, 0, .AHEAD. ) ;
#102 = PERSON_AND_ORGANIZATION_ROLE ( 'creator' ) ;
#103 = VERTEX_POINT ( 'NONE', #146 ) ;
#104 = FACE_OUTER_BOUND ( 'NONE', #136, .T. ) ;
#105 = VERTEX_POINT ( 'NONE', #193 ) ;
#106 = APPROVAL ( #162, 'UNSPECIFIED' ) ;
#107 = CALENDAR_DATE ( 2021, 16, 11 ) ;
#108 = CARTESIAN_POINT ( 'NONE',  ( 1.920314736363723030E-14, -6.751348004531079097E-16, 5.499999999999999112 ) ) ;
#109 = CC_DESIGN_PERSON_AND_ORGANIZATION_ASSIGNMENT ( #90, #102, ( #145 ) ) ;
#110 = AXIS2_PLACEMENT_3D ( 'NONE', #64, #121, #39 ) ;
#111 = EDGE_CURVE ( 'NONE', #105, #105, #61, .T. ) ;
#112 = CLOSED_SHELL ( 'NONE', ( #167, #18, #188, #48, #131 ) ) ;
#113 = FACE_BOUND ( 'NONE', #122, .T. ) ;
#114 = MANIFOLD_SOLID_BREP ( 'Corps-Déplacer/Copier1[1]', #112 ) ;
#115 = FACE_OUTER_BOUND ( 'NONE', #75, .T. ) ;
#116 = MANIFOLD_SOLID_BREP ( 'Corps-Déplacer/Copier1[2]', #96 ) ;
#117 = ORIENTED_EDGE ( 'NONE', *, *, #86, .T. ) ;
#118 = PERSON_AND_ORGANIZATION ( #220, #189 ) ;
#119 = AXIS2_PLACEMENT_3D ( 'NONE', #57, #194, #2 ) ;
#120 = VERTEX_POINT ( 'NONE', #174 ) ;
#121 = DIRECTION ( 'NONE',  ( 3.491481338843133355E-15, -1.224646799147353207E-16, 1.000000000000000000 ) ) ;
#122 = EDGE_LOOP ( 'NONE', ( #202 ) ) ;
#123 = APPROVAL_STATUS ( 'not_yet_approved' ) ;
#124 =( LENGTH_UNIT ( ) NAMED_UNIT ( * ) SI_UNIT ( .MILLI., .METRE. ) );
#125 = DIRECTION ( 'NONE',  ( 0.0000000000000000000, 1.000000000000000000, 0.0000000000000000000 ) ) ;
#126 = CALENDAR_DATE ( 2021, 16, 11 ) ;
#127 = CIRCLE ( 'NONE', #119, 1.499999999999992006 ) ;
#128 = DIRECTION ( 'NONE',  ( 3.491481338843133355E-15, -1.227517819005651059E-16, 1.000000000000000000 ) ) ;
#129 = PERSON_AND_ORGANIZATION_ROLE ( 'classification_officer' ) ;
#130 = EDGE_LOOP ( 'NONE', ( #160 ) ) ;
#131 = ADVANCED_FACE ( 'NONE', ( #191 ), #84, .F. ) ;
#132 = AXIS2_PLACEMENT_3D ( 'NONE', #25, #9, #158 ) ;
#133 = CIRCLE ( 'NONE', #32, 1.100000000000000977 ) ;
#134 = CIRCLE ( 'NONE', #185, 1.199999999999992184 ) ;
#135 = DIRECTION ( 'NONE',  ( -3.491481338843133355E-15, 1.224646799147353207E-16, -1.000000000000000000 ) ) ;
#136 = EDGE_LOOP ( 'NONE', ( #221 ) ) ;
#137 = DIRECTION ( 'NONE',  ( 0.0000000000000000000, 0.0000000000000000000, 1.000000000000000000 ) ) ;
#138 = DIRECTION ( 'NONE',  ( -3.491481338843133355E-15, 1.224646799147353207E-16, -1.000000000000000000 ) ) ;
#139 = APPROVAL_DATE_TIME ( #24, #106 ) ;
#140 = LOCAL_TIME ( 16, 45, 10.00000000000000000, #101 ) ;
#141 = CARTESIAN_POINT ( 'NONE',  ( 1.920314736363723030E-14, 0.0000000000000000000, 5.499999999999999112 ) ) ;
#142 = PERSON_AND_ORGANIZATION ( #220, #189 ) ;
#143 = EDGE_LOOP ( 'NONE', ( #117 ) ) ;
#144 = APPLICATION_PROTOCOL_DEFINITION ( 'international standard', 'config_control_design', 1994, #201 ) ;
#145 = PRODUCT_DEFINITION_FORMATION_WITH_SPECIFIED_SOURCE ( 'ANY', '', #148, .NOT_KNOWN. ) ;
#146 = CARTESIAN_POINT ( 'NONE',  ( 1.920314736363723030E-14, -1.100000000000001643, 5.499999999999999112 ) ) ;
#147 = DIRECTION ( 'NONE',  ( 0.0000000000000000000, 1.000000000000000000, 0.0000000000000000000 ) ) ;
#148 = PRODUCT ( '966146', '966146', '', ( #26 ) ) ;
#149 = ADVANCED_FACE ( 'NONE', ( #22 ), #87, .T. ) ;
#150 = PRODUCT_DEFINITION_SHAPE ( 'NONE', 'NONE',  #153 ) ;
#151 = ORIENTED_EDGE ( 'NONE', *, *, #41, .T. ) ;
#152 = AXIS2_PLACEMENT_3D ( 'NONE', #141, #128, #67 ) ;
#153 = PRODUCT_DEFINITION ( 'UNKNOWN', '', #145, #95 ) ;
#154 =( GEOMETRIC_REPRESENTATION_CONTEXT ( 3 ) GLOBAL_UNCERTAINTY_ASSIGNED_CONTEXT ( ( #45 ) ) GLOBAL_UNIT_ASSIGNED_CONTEXT ( ( #124, #55, #177 ) ) REPRESENTATION_CONTEXT ( 'NONE', 'WORKASPACE' ) );
#155 = EDGE_LOOP ( 'NONE', ( #6 ) ) ;
#156 = CALENDAR_DATE ( 2021, 16, 11 ) ;
#157 = EDGE_LOOP ( 'NONE', ( #169 ) ) ;
#158 = DIRECTION ( 'NONE',  ( -4.275831445896958607E-31, -1.000000000000000000, -1.224646799147353207E-16 ) ) ;
#159 = DIRECTION ( 'NONE',  ( 1.000000000000000000, 0.0000000000000000000, 0.0000000000000000000 ) ) ;
#160 = ORIENTED_EDGE ( 'NONE', *, *, #8, .T. ) ;
#161 = PLANE ( 'NONE',  #132 ) ;
#162 = APPROVAL_STATUS ( 'not_yet_approved' ) ;
#163 = EDGE_LOOP ( 'NONE', ( #199 ) ) ;
#164 = ADVANCED_FACE ( 'NONE', ( #29, #10 ), #93, .T. ) ;
#165 = DIRECTION ( 'NONE',  ( 3.491481338843133355E-15, -1.224646799147353207E-16, 1.000000000000000000 ) ) ;
#166 = CC_DESIGN_APPROVAL ( #106, ( #153 ) ) ;
#167 = ADVANCED_FACE ( 'NONE', ( #115, #33 ), #210, .T. ) ;
#168 = LOCAL_TIME ( 16, 45, 10.00000000000000000, #198 ) ;
#169 = ORIENTED_EDGE ( 'NONE', *, *, #81, .F. ) ;
#170 = DIRECTION ( 'NONE',  ( -3.491481338843133355E-15, 1.227517819005651059E-16, -1.000000000000000000 ) ) ;
#171 = LOCAL_TIME ( 16, 45, 10.00000000000000000, #43 ) ;
#172 = APPLICATION_CONTEXT ( 'configuration controlled 3d designs of mechanical parts and assemblies' ) ;
#173 = CALENDAR_DATE ( 2021, 16, 11 ) ;
#174 = CARTESIAN_POINT ( 'NONE',  ( 1.316288464743860707E-13, 1.499999999999987566, 37.69999999999998153 ) ) ;
#175 = CARTESIAN_POINT ( 'NONE',  ( 1.326762908760390170E-13, -4.653657836759941152E-15, 37.99999999999999289 ) ) ;
#176 = DATE_TIME_ROLE ( 'classification_date' ) ;
#177 =( NAMED_UNIT ( * ) SI_UNIT ( $, .STERADIAN. ) SOLID_ANGLE_UNIT ( ) );
#178 = APPROVAL_PERSON_ORGANIZATION ( #7, #106, #68 ) ;
#179 = PERSON_AND_ORGANIZATION ( #220, #189 ) ;
#180 = DATE_TIME_ROLE ( 'creation_date' ) ;
#181 = CC_DESIGN_PERSON_AND_ORGANIZATION_ASSIGNMENT ( #3, #129, ( #30 ) ) ;
#182 = DIRECTION ( 'NONE',  ( -4.275831445896958607E-31, -1.000000000000000000, -1.224646799147353207E-16 ) ) ;
#183 = CONICAL_SURFACE ( 'NONE', #217, 1.199999999999992184, 0.7853981633974338461 ) ;
#184 = EDGE_CURVE ( 'NONE', #40, #40, #77, .T. ) ;
#185 = AXIS2_PLACEMENT_3D ( 'NONE', #175, #200, #147 ) ;
#186 = CARTESIAN_POINT ( 'NONE',  ( 0.0000000000000000000, 0.0000000000000000000, 0.0000000000000000000 ) ) ;
#187 = DIRECTION ( 'NONE',  ( 0.0000000000000000000, 1.000000000000000000, 0.0000000000000000000 ) ) ;
#188 = ADVANCED_FACE ( 'NONE', ( #34 ), #37, .F. ) ;
#189 = ORGANIZATION ( 'UNSPECIFIED', 'UNSPECIFIED', '' ) ;
#190 = APPROVAL_STATUS ( 'not_yet_approved' ) ;
#191 = FACE_OUTER_BOUND ( 'NONE', #27, .T. ) ;
#192 = PERSON_AND_ORGANIZATION_ROLE ( 'creator' ) ;
#193 = CARTESIAN_POINT ( 'NONE',  ( 1.920314736363723030E-14, -1.100000000000001643, 5.499999999999999112 ) ) ;
#194 = DIRECTION ( 'NONE',  ( -3.491481338843133355E-15, 1.224646799147353207E-16, -1.000000000000000000 ) ) ;
#195 = PERSON_AND_ORGANIZATION_ROLE ( 'design_owner' ) ;
#196 = APPROVAL ( #123, 'UNSPECIFIED' ) ;
#197 = CARTESIAN_POINT ( 'NONE',  ( 1.920314736363723030E-14, -6.751348004531079097E-16, 5.499999999999999112 ) ) ;
#198 = COORDINATED_UNIVERSAL_TIME_OFFSET ( 1, 0, .AHEAD. ) ;
#199 = ORIENTED_EDGE ( 'NONE', *, *, #8, .F. ) ;
#200 = DIRECTION ( 'NONE',  ( -3.491481338843133355E-15, 1.224646799147353207E-16, -1.000000000000000000 ) ) ;
#201 = APPLICATION_CONTEXT ( 'configuration controlled 3d designs of mechanical parts and assemblies' ) ;
#202 = ORIENTED_EDGE ( 'NONE', *, *, #81, .T. ) ;
#203 = CC_DESIGN_APPROVAL ( #196, ( #30 ) ) ;
#204 = APPROVAL ( #190, 'UNSPECIFIED' ) ;
#205 = ORIENTED_EDGE ( 'NONE', *, *, #41, .F. ) ;
#206 = FACE_OUTER_BOUND ( 'NONE', #63, .T. ) ;
#207 = DIRECTION ( 'NONE',  ( 4.275831445896958607E-31, 1.000000000000000000, 1.224646799147353207E-16 ) ) ;
#208 = ORIENTED_EDGE ( 'NONE', *, *, #184, .F. ) ;
#209 = SHAPE_DEFINITION_REPRESENTATION ( #150, #14 ) ;
#210 = CYLINDRICAL_SURFACE ( 'NONE', #16, 1.499999999999990008 ) ;
#211 = CARTESIAN_POINT ( 'NONE',  ( 1.920314736363723345E-14, 1.124819836996383490E-32, 5.500000000000000000 ) ) ;
#212 = COORDINATED_UNIVERSAL_TIME_OFFSET ( 1, 0, .AHEAD. ) ;
#213 = DIRECTION ( 'NONE',  ( 3.491481338843133355E-15, -1.227517819005651059E-16, 1.000000000000000000 ) ) ;
#214 = APPROVAL_DATE_TIME ( #65, #196 ) ;
#215 = ORIENTED_EDGE ( 'NONE', *, *, #86, .F. ) ;
#216 = VERTEX_POINT ( 'NONE', #89 ) ;
#217 = AXIS2_PLACEMENT_3D ( 'NONE', #99, #80, #125 ) ;
#218 = EDGE_LOOP ( 'NONE', ( #215 ) ) ;
#219 = CC_DESIGN_PERSON_AND_ORGANIZATION_ASSIGNMENT ( #54, #195, ( #148 ) ) ;
#220 = PERSON ( 'UNSPECIFIED', 'UNSPECIFIED', 'UNSPECIFIED', ('UNSPECIFIED'), ('UNSPECIFIED'), ('UNSPECIFIED') ) ;
#221 = ORIENTED_EDGE ( 'NONE', *, *, #111, .T. ) ;
#222 = DIRECTION ( 'NONE',  ( -4.285855558155653280E-31, -1.000000000000000000, -1.227517819005651059E-16 ) ) ;
#223 = AXIS2_PLACEMENT_3D ( 'NONE', #197, #213, #20 ) ;
ENDSEC;
END-ISO-10303-21;
