ISO-10303-21;
HEADER;
FILE_DESCRIPTION (( 'STEP AP203' ),
    '1' );
FILE_NAME ('966145.step',
    '2021-11-16T15:45:10',
    ( '' ),
    ( '' ),
    'SwSTEP 2.0',
    'SolidWorks 2019',
    '' );
FILE_SCHEMA (( 'CONFIG_CONTROL_DESIGN' ));
ENDSEC;

DATA;
#1 = CARTESIAN_POINT ( 'NONE',  ( 1.833027702892645012E-14, 1.124819836996383490E-32, 5.250000000000000000 ) ) ;
#2 = APPROVAL_PERSON_ORGANIZATION ( #65, #162, #135 ) ;
#3 = DIRECTION ( 'NONE',  ( -3.491481338843133355E-15, 1.224646799147353207E-16, -1.000000000000000000 ) ) ;
#4 = MECHANICAL_CONTEXT ( 'NONE', #29, 'mechanical' ) ;
#5 = EDGE_LOOP ( 'NONE', ( #58 ) ) ;
#6 = EDGE_LOOP ( 'NONE', ( #26 ) ) ;
#7 = CARTESIAN_POINT ( 'NONE',  ( 1.316288464743860707E-13, 1.499999999999987566, 37.69999999999998153 ) ) ;
#8 = CARTESIAN_POINT ( 'NONE',  ( 1.833027702892644696E-14, -1.050000000000000044, 5.249999999999999112 ) ) ;
#9 = CLOSED_SHELL ( 'NONE', ( #127, #219, #208 ) ) ;
#10 = ORGANIZATION ( 'UNSPECIFIED', 'UNSPECIFIED', '' ) ;
#11 = SECURITY_CLASSIFICATION_LEVEL ( 'unclassified' ) ;
#12 = APPROVAL ( #112, 'UNSPECIFIED' ) ;
#13 = DATE_TIME_ROLE ( 'classification_date' ) ;
#14 = PERSON_AND_ORGANIZATION_ROLE ( 'creator' ) ;
#15 = ADVANCED_FACE ( 'NONE', ( #122, #223 ), #86, .F. ) ;
#16 = PERSON_AND_ORGANIZATION ( #41, #10 ) ;
#17 = AXIS2_PLACEMENT_3D ( 'NONE', #205, #153, #63 ) ;
#18 = CARTESIAN_POINT ( 'NONE',  ( -4.500148336063433491E-31, -6.727682695115232473E-33, -1.288893709955932699E-16 ) ) ;
#19 = EDGE_CURVE ( 'NONE', #78, #78, #155, .T. ) ;
#20 = EDGE_LOOP ( 'NONE', ( #106 ) ) ;
#21 = DIRECTION ( 'NONE',  ( 0.0000000000000000000, 1.000000000000000000, 0.0000000000000000000 ) ) ;
#22 = AXIS2_PLACEMENT_3D ( 'NONE', #142, #209, #169 ) ;
#23 = PLANE ( 'NONE',  #105 ) ;
#24 = PRODUCT_DEFINITION ( 'UNKNOWN', '', #214, #69 ) ;
#25 = APPLICATION_CONTEXT ( 'configuration controlled 3d designs of mechanical parts and assemblies' ) ;
#26 = ORIENTED_EDGE ( 'NONE', *, *, #113, .F. ) ;
#27 = ORIENTED_EDGE ( 'NONE', *, *, #32, .F. ) ;
#28 = APPLICATION_PROTOCOL_DEFINITION ( 'international standard', 'config_control_design', 1994, #29 ) ;
#29 = APPLICATION_CONTEXT ( 'configuration controlled 3d designs of mechanical parts and assemblies' ) ;
#30 = VERTEX_POINT ( 'NONE', #163 ) ;
#31 = APPROVAL_DATE_TIME ( #152, #210 ) ;
#32 = EDGE_CURVE ( 'NONE', #143, #143, #182, .T. ) ;
#33 = COORDINATED_UNIVERSAL_TIME_OFFSET ( 1, 0, .AHEAD. ) ;
#34 = CALENDAR_DATE ( 2021, 16, 11 ) ;
#35 = CC_DESIGN_DATE_AND_TIME_ASSIGNMENT ( #53, #83, ( #24 ) ) ;
#36 = APPROVAL_ROLE ( '' ) ;
#37 = CARTESIAN_POINT ( 'NONE',  ( 1.316288464743860707E-13, -4.616918432785519503E-15, 37.69999999999998153 ) ) ;
#38 = CC_DESIGN_PERSON_AND_ORGANIZATION_ASSIGNMENT ( #84, #96, ( #148 ) ) ;
#39 = FACE_OUTER_BOUND ( 'NONE', #195, .T. ) ;
#40 = CARTESIAN_POINT ( 'NONE',  ( 1.833027702892644696E-14, 0.0000000000000000000, 5.249999999999999112 ) ) ;
#41 = PERSON ( 'UNSPECIFIED', 'UNSPECIFIED', 'UNSPECIFIED', ('UNSPECIFIED'), ('UNSPECIFIED'), ('UNSPECIFIED') ) ;
#42 = DIRECTION ( 'NONE',  ( -3.491481338843133355E-15, 1.224646799147353207E-16, -1.000000000000000000 ) ) ;
#43 = ORIENTED_EDGE ( 'NONE', *, *, #175, .T. ) ;
#44 =( NAMED_UNIT ( * ) PLANE_ANGLE_UNIT ( ) SI_UNIT ( $, .RADIAN. ) );
#45 = ORIENTED_EDGE ( 'NONE', *, *, #19, .T. ) ;
#46 =( NAMED_UNIT ( * ) SI_UNIT ( $, .STERADIAN. ) SOLID_ANGLE_UNIT ( ) );
#47 = AXIS2_PLACEMENT_3D ( 'NONE', #37, #3, #189 ) ;
#48 = DIRECTION ( 'NONE',  ( -4.275831445896958607E-31, -1.000000000000000000, -1.224646799147353207E-16 ) ) ;
#49 = CC_DESIGN_DATE_AND_TIME_ASSIGNMENT ( #151, #13, ( #148 ) ) ;
#50 = UNCERTAINTY_MEASURE_WITH_UNIT (LENGTH_MEASURE( 1.000000000000000082E-05 ), #145, 'distance_accuracy_value', 'NONE');
#51 = PERSON_AND_ORGANIZATION_ROLE ( 'design_supplier' ) ;
#52 = CC_DESIGN_APPROVAL ( #162, ( #24 ) ) ;
#53 = DATE_AND_TIME ( #57, #207 ) ;
#54 = MANIFOLD_SOLID_BREP ( 'Corps-Déplacer/Copier1[2]', #9 ) ;
#55 = CC_DESIGN_PERSON_AND_ORGANIZATION_ASSIGNMENT ( #124, #107, ( #173 ) ) ;
#56 = LOCAL_TIME ( 16, 45, 10.00000000000000000, #94 ) ;
#57 = CALENDAR_DATE ( 2021, 16, 11 ) ;
#58 = ORIENTED_EDGE ( 'NONE', *, *, #19, .F. ) ;
#59 = DIRECTION ( 'NONE',  ( -3.491481338843133355E-15, 1.224646799147353207E-16, -1.000000000000000000 ) ) ;
#60 = EDGE_LOOP ( 'NONE', ( #176 ) ) ;
#61 = CC_DESIGN_APPROVAL ( #12, ( #148 ) ) ;
#62 = EDGE_LOOP ( 'NONE', ( #45 ) ) ;
#63 = DIRECTION ( 'NONE',  ( 4.275831445896959482E-31, 1.000000000000000000, 1.224646799147353207E-16 ) ) ;
#64 = EDGE_LOOP ( 'NONE', ( #91 ) ) ;
#65 = PERSON_AND_ORGANIZATION ( #41, #10 ) ;
#66 = CARTESIAN_POINT ( 'NONE',  ( -9.000296672126868734E-31, -1.049999999999999822, -2.577787419911865892E-16 ) ) ;
#67 = CIRCLE ( 'NONE', #92, 1.499999999999990008 ) ;
#68 = PERSON_AND_ORGANIZATION ( #41, #10 ) ;
#69 = DESIGN_CONTEXT ( 'detailed design', #25, 'design' ) ;
#70 = CALENDAR_DATE ( 2021, 16, 11 ) ;
#71 = COORDINATED_UNIVERSAL_TIME_OFFSET ( 1, 0, .AHEAD. ) ;
#72 = DIRECTION ( 'NONE',  ( -4.348155369072392588E-31, -1.000000000000000000, -1.227517819005651059E-16 ) ) ;
#73 = FACE_OUTER_BOUND ( 'NONE', #60, .T. ) ;
#74 = DIRECTION ( 'NONE',  ( 0.0000000000000000000, 1.000000000000000000, 0.0000000000000000000 ) ) ;
#75 = ORIENTED_EDGE ( 'NONE', *, *, #146, .F. ) ;
#76 = APPROVAL_PERSON_ORGANIZATION ( #81, #12, #36 ) ;
#77 = EDGE_LOOP ( 'NONE', ( #43 ) ) ;
#78 = VERTEX_POINT ( 'NONE', #129 ) ;
#79 = ADVANCED_FACE ( 'NONE', ( #158, #116 ), #110, .T. ) ;
#80 = AXIS2_PLACEMENT_3D ( 'NONE', #199, #181, #184 ) ;
#81 = PERSON_AND_ORGANIZATION ( #41, #10 ) ;
#82 = PERSON_AND_ORGANIZATION_ROLE ( 'creator' ) ;
#83 = DATE_TIME_ROLE ( 'creation_date' ) ;
#84 = PERSON_AND_ORGANIZATION ( #41, #10 ) ;
#85 = DIRECTION ( 'NONE',  ( 3.491481338843133355E-15, -1.227517819005651059E-16, 1.000000000000000000 ) ) ;
#86 = TOROIDAL_SURFACE ( 'NONE', #144, 9.049999999999998934, 8.000000000000000000 ) ;
#87 = CIRCLE ( 'NONE', #161, 1.199999999999992184 ) ;
#88 = CARTESIAN_POINT ( 'NONE',  ( 1.326762908760390170E-13, -4.653657836759941152E-15, 37.99999999999999289 ) ) ;
#89 = CARTESIAN_POINT ( 'NONE',  ( 1.326762908760390170E-13, 8.998558695971017012E-33, 37.99999999999999289 ) ) ;
#90 = ORIENTED_EDGE ( 'NONE', *, *, #164, .T. ) ;
#91 = ORIENTED_EDGE ( 'NONE', *, *, #32, .T. ) ;
#92 = AXIS2_PLACEMENT_3D ( 'NONE', #156, #140, #191 ) ;
#93 = VERTEX_POINT ( 'NONE', #7 ) ;
#94 = COORDINATED_UNIVERSAL_TIME_OFFSET ( 1, 0, .AHEAD. ) ;
#95 = CIRCLE ( 'NONE', #187, 1.049999999999999600 ) ;
#96 = PERSON_AND_ORGANIZATION_ROLE ( 'classification_officer' ) ;
#97 = ADVANCED_BREP_SHAPE_REPRESENTATION ( '966145', ( #118, #54, #80 ), #98 ) ;
#98 =( GEOMETRIC_REPRESENTATION_CONTEXT ( 3 ) GLOBAL_UNCERTAINTY_ASSIGNED_CONTEXT ( ( #50 ) ) GLOBAL_UNIT_ASSIGNED_CONTEXT ( ( #145, #44, #46 ) ) REPRESENTATION_CONTEXT ( 'NONE', 'WORKASPACE' ) );
#99 = CARTESIAN_POINT ( 'NONE',  ( 1.833027702892644696E-14, -6.444468549779667441E-16, 5.249999999999999112 ) ) ;
#100 = DIRECTION ( 'NONE',  ( 3.491481338843133355E-15, -1.224646799147353207E-16, 1.000000000000000000 ) ) ;
#101 = PRODUCT_DEFINITION_SHAPE ( 'NONE', 'NONE',  #24 ) ;
#102 = DIRECTION ( 'NONE',  ( 3.491481338843133355E-15, -1.227517819005651059E-16, 1.000000000000000000 ) ) ;
#103 = DIRECTION ( 'NONE',  ( 0.0000000000000000000, -1.000000000000000000, 0.0000000000000000000 ) ) ;
#104 = CYLINDRICAL_SURFACE ( 'NONE', #17, 1.499999999999990008 ) ;
#105 = AXIS2_PLACEMENT_3D ( 'NONE', #1, #100, #220 ) ;
#106 = ORIENTED_EDGE ( 'NONE', *, *, #113, .T. ) ;
#107 = PERSON_AND_ORGANIZATION_ROLE ( 'design_owner' ) ;
#108 = EDGE_LOOP ( 'NONE', ( #90 ) ) ;
#109 = FACE_OUTER_BOUND ( 'NONE', #178, .T. ) ;
#110 = CONICAL_SURFACE ( 'NONE', #185, 1.199999999999992184, 0.7853981633974338461 ) ;
#111 = FACE_OUTER_BOUND ( 'NONE', #64, .T. ) ;
#112 = APPROVAL_STATUS ( 'not_yet_approved' ) ;
#113 = EDGE_CURVE ( 'NONE', #93, #93, #217, .T. ) ;
#114 = AXIS2_PLACEMENT_3D ( 'NONE', #89, #42, #141 ) ;
#115 = APPROVAL_DATE_TIME ( #168, #162 ) ;
#116 = FACE_BOUND ( 'NONE', #108, .T. ) ;
#117 = FACE_OUTER_BOUND ( 'NONE', #211, .T. ) ;
#118 = MANIFOLD_SOLID_BREP ( 'Corps-Déplacer/Copier1[1]', #201 ) ;
#119 = FACE_OUTER_BOUND ( 'NONE', #5, .T. ) ;
#120 = CC_DESIGN_PERSON_AND_ORGANIZATION_ASSIGNMENT ( #68, #51, ( #214 ) ) ;
#121 = APPROVAL_PERSON_ORGANIZATION ( #16, #210, #215 ) ;
#122 = FACE_OUTER_BOUND ( 'NONE', #62, .T. ) ;
#123 = PLANE ( 'NONE',  #114 ) ;
#124 = PERSON_AND_ORGANIZATION ( #41, #10 ) ;
#125 = EDGE_LOOP ( 'NONE', ( #27 ) ) ;
#126 = APPROVAL_STATUS ( 'not_yet_approved' ) ;
#127 = ADVANCED_FACE ( 'NONE', ( #73 ), #23, .T. ) ;
#128 = CC_DESIGN_APPROVAL ( #210, ( #214 ) ) ;
#129 = CARTESIAN_POINT ( 'NONE',  ( 1.833027702892644696E-14, -1.050000000000000044, 5.249999999999999112 ) ) ;
#130 = CYLINDRICAL_SURFACE ( 'NONE', #197, 1.049999999999999822 ) ;
#131 = COORDINATED_UNIVERSAL_TIME_OFFSET ( 1, 0, .AHEAD. ) ;
#132 = CC_DESIGN_PERSON_AND_ORGANIZATION_ASSIGNMENT ( #216, #82, ( #214 ) ) ;
#133 = CALENDAR_DATE ( 2021, 16, 11 ) ;
#134 = PRODUCT_RELATED_PRODUCT_CATEGORY ( 'detail', '', ( #173 ) ) ;
#135 = APPROVAL_ROLE ( '' ) ;
#136 = DIRECTION ( 'NONE',  ( 3.491481338843133355E-15, -1.227517819005651059E-16, 1.000000000000000000 ) ) ;
#137 = LOCAL_TIME ( 16, 45, 10.00000000000000000, #33 ) ;
#138 = FACE_OUTER_BOUND ( 'NONE', #20, .T. ) ;
#139 = ADVANCED_FACE ( 'NONE', ( #119 ), #157, .F. ) ;
#140 = DIRECTION ( 'NONE',  ( -3.491481338843133355E-15, 1.227517819005651059E-16, -1.000000000000000000 ) ) ;
#141 = DIRECTION ( 'NONE',  ( 4.275831445896958607E-31, 1.000000000000000000, 1.224646799147353207E-16 ) ) ;
#142 = CARTESIAN_POINT ( 'NONE',  ( 1.833027702892645012E-14, 1.124819836996383490E-32, 5.250000000000000000 ) ) ;
#143 = VERTEX_POINT ( 'NONE', #66 ) ;
#144 = AXIS2_PLACEMENT_3D ( 'NONE', #40, #171, #72 ) ;
#145 =( LENGTH_UNIT ( ) NAMED_UNIT ( * ) SI_UNIT ( .MILLI., .METRE. ) );
#146 = EDGE_CURVE ( 'NONE', #213, #213, #95, .T. ) ;
#147 = DIRECTION ( 'NONE',  ( 3.491481338843133355E-15, -1.224646799147353207E-16, 1.000000000000000000 ) ) ;
#148 = SECURITY_CLASSIFICATION ( '', '', #11 ) ;
#149 = CALENDAR_DATE ( 2021, 16, 11 ) ;
#150 = SHAPE_DEFINITION_REPRESENTATION ( #101, #97 ) ;
#151 = DATE_AND_TIME ( #34, #56 ) ;
#152 = DATE_AND_TIME ( #133, #172 ) ;
#153 = DIRECTION ( 'NONE',  ( -3.491481338843133355E-15, 1.224646799147353207E-16, -1.000000000000000000 ) ) ;
#154 = DIRECTION ( 'NONE',  ( -4.285855558155653280E-31, -1.000000000000000000, -1.227517819005650812E-16 ) ) ;
#155 = CIRCLE ( 'NONE', #167, 1.049999999999999600 ) ;
#156 = CARTESIAN_POINT ( 'NONE',  ( 2.756621864153847315E-14, -3.247126879542063523E-16, 7.895278813282232022 ) ) ;
#157 = PLANE ( 'NONE',  #22 ) ;
#158 = FACE_OUTER_BOUND ( 'NONE', #6, .T. ) ;
#159 = DIRECTION ( 'NONE',  ( -4.285855558155653280E-31, -1.000000000000000000, -1.227517819005650812E-16 ) ) ;
#160 = ORIENTED_EDGE ( 'NONE', *, *, #164, .F. ) ;
#161 = AXIS2_PLACEMENT_3D ( 'NONE', #88, #59, #74 ) ;
#162 = APPROVAL ( #126, 'UNSPECIFIED' ) ;
#163 = CARTESIAN_POINT ( 'NONE',  ( 2.756621864153847315E-14, 1.499999999999989786, 7.895278813282232022 ) ) ;
#164 = EDGE_CURVE ( 'NONE', #183, #183, #87, .T. ) ;
#165 = APPROVAL_DATE_TIME ( #218, #12 ) ;
#166 = LOCAL_TIME ( 16, 45, 10.00000000000000000, #71 ) ;
#167 = AXIS2_PLACEMENT_3D ( 'NONE', #204, #136, #103 ) ;
#168 = DATE_AND_TIME ( #149, #166 ) ;
#169 = DIRECTION ( 'NONE',  ( -4.275831445896958607E-31, -1.000000000000000000, -1.224646799147353207E-16 ) ) ;
#170 = ADVANCED_FACE ( 'NONE', ( #138, #117 ), #104, .T. ) ;
#171 = DIRECTION ( 'NONE',  ( 3.491481338843133355E-15, -1.227517819005651059E-16, 1.000000000000000000 ) ) ;
#172 = LOCAL_TIME ( 16, 45, 10.00000000000000000, #200 ) ;
#173 = PRODUCT ( '966145', '966145', '', ( #4 ) ) ;
#174 = DIRECTION ( 'NONE',  ( 0.0000000000000000000, -1.000000000000000000, 0.0000000000000000000 ) ) ;
#175 = EDGE_CURVE ( 'NONE', #30, #30, #67, .T. ) ;
#176 = ORIENTED_EDGE ( 'NONE', *, *, #146, .T. ) ;
#177 = CARTESIAN_POINT ( 'NONE',  ( -2.137917073001454058E-30, 7.498803648657679327E-32, -6.123237862442165323E-16 ) ) ;
#178 = EDGE_LOOP ( 'NONE', ( #75 ) ) ;
#179 = APPLICATION_PROTOCOL_DEFINITION ( 'international standard', 'config_control_design', 1994, #25 ) ;
#180 = CARTESIAN_POINT ( 'NONE',  ( -6.413731847436034514E-31, 0.0000000000000000000, -1.836965810494968570E-16 ) ) ;
#181 = DIRECTION ( 'NONE',  ( 0.0000000000000000000, 0.0000000000000000000, 1.000000000000000000 ) ) ;
#182 = CIRCLE ( 'NONE', #194, 1.049999999999999822 ) ;
#183 = VERTEX_POINT ( 'NONE', #196 ) ;
#184 = DIRECTION ( 'NONE',  ( 1.000000000000000000, 0.0000000000000000000, 0.0000000000000000000 ) ) ;
#185 = AXIS2_PLACEMENT_3D ( 'NONE', #222, #190, #21 ) ;
#186 = APPROVAL_STATUS ( 'not_yet_approved' ) ;
#187 = AXIS2_PLACEMENT_3D ( 'NONE', #99, #102, #174 ) ;
#188 = CC_DESIGN_PERSON_AND_ORGANIZATION_ASSIGNMENT ( #202, #14, ( #24 ) ) ;
#189 = DIRECTION ( 'NONE',  ( 0.0000000000000000000, 1.000000000000000000, 0.0000000000000000000 ) ) ;
#190 = DIRECTION ( 'NONE',  ( -3.491481338843133355E-15, 1.224646799147353207E-16, -1.000000000000000000 ) ) ;
#191 = DIRECTION ( 'NONE',  ( 0.0000000000000000000, 1.000000000000000000, 0.0000000000000000000 ) ) ;
#192 = AXIS2_PLACEMENT_3D ( 'NONE', #177, #147, #48 ) ;
#193 = PLANE ( 'NONE',  #192 ) ;
#194 = AXIS2_PLACEMENT_3D ( 'NONE', #18, #85, #154 ) ;
#195 = EDGE_LOOP ( 'NONE', ( #160 ) ) ;
#196 = CARTESIAN_POINT ( 'NONE',  ( 1.326762908760390170E-13, 1.199999999999987521, 37.99999999999999289 ) ) ;
#197 = AXIS2_PLACEMENT_3D ( 'NONE', #180, #212, #159 ) ;
#198 = ADVANCED_FACE ( 'NONE', ( #39 ), #123, .F. ) ;
#199 = CARTESIAN_POINT ( 'NONE',  ( 0.0000000000000000000, 0.0000000000000000000, 0.0000000000000000000 ) ) ;
#200 = COORDINATED_UNIVERSAL_TIME_OFFSET ( 1, 0, .AHEAD. ) ;
#201 = CLOSED_SHELL ( 'NONE', ( #170, #79, #198, #15, #139 ) ) ;
#202 = PERSON_AND_ORGANIZATION ( #41, #10 ) ;
#203 = ORIENTED_EDGE ( 'NONE', *, *, #175, .F. ) ;
#204 = CARTESIAN_POINT ( 'NONE',  ( 1.833027702892644696E-14, -6.444468549779667441E-16, 5.249999999999999112 ) ) ;
#205 = CARTESIAN_POINT ( 'NONE',  ( 0.0000000000000000000, 0.0000000000000000000, 0.0000000000000000000 ) ) ;
#206 = FACE_OUTER_BOUND ( 'NONE', #125, .T. ) ;
#207 = LOCAL_TIME ( 16, 45, 10.00000000000000000, #131 ) ;
#208 = ADVANCED_FACE ( 'NONE', ( #206 ), #193, .F. ) ;
#209 = DIRECTION ( 'NONE',  ( 3.491481338843133355E-15, -1.224646799147353207E-16, 1.000000000000000000 ) ) ;
#210 = APPROVAL ( #186, 'UNSPECIFIED' ) ;
#211 = EDGE_LOOP ( 'NONE', ( #203 ) ) ;
#212 = DIRECTION ( 'NONE',  ( 3.491481338843133355E-15, -1.227517819005651059E-16, 1.000000000000000000 ) ) ;
#213 = VERTEX_POINT ( 'NONE', #8 ) ;
#214 = PRODUCT_DEFINITION_FORMATION_WITH_SPECIFIED_SOURCE ( 'ANY', '', #173, .NOT_KNOWN. ) ;
#215 = APPROVAL_ROLE ( '' ) ;
#216 = PERSON_AND_ORGANIZATION ( #41, #10 ) ;
#217 = CIRCLE ( 'NONE', #47, 1.499999999999992006 ) ;
#218 = DATE_AND_TIME ( #70, #137 ) ;
#219 = ADVANCED_FACE ( 'NONE', ( #111, #109 ), #130, .T. ) ;
#220 = DIRECTION ( 'NONE',  ( -4.275831445896958607E-31, -1.000000000000000000, -1.224646799147353207E-16 ) ) ;
#221 = CC_DESIGN_SECURITY_CLASSIFICATION ( #148, ( #214 ) ) ;
#222 = CARTESIAN_POINT ( 'NONE',  ( 1.326762908760390170E-13, -4.653657836759941152E-15, 37.99999999999999289 ) ) ;
#223 = FACE_OUTER_BOUND ( 'NONE', #77, .T. ) ;
ENDSEC;
END-ISO-10303-21;
