ISO-10303-21;
HEADER;
FILE_DESCRIPTION (( 'STEP AP203' ),
    '1' );
FILE_NAME ('966142.step',
    '2021-11-16T15:45:09',
    ( '' ),
    ( '' ),
    'SwSTEP 2.0',
    'SolidWorks 2019',
    '' );
FILE_SCHEMA (( 'CONFIG_CONTROL_DESIGN' ));
ENDSEC;

DATA;
#1 = DIRECTION ( 'NONE',  ( -4.275831445896958607E-31, -1.000000000000000000, -1.224646799147353207E-16 ) ) ;
#2 = EDGE_CURVE ( 'NONE', #214, #214, #218, .T. ) ;
#3 = EDGE_LOOP ( 'NONE', ( #122 ) ) ;
#4 = DIRECTION ( 'NONE',  ( 0.0000000000000000000, 1.000000000000000000, 0.0000000000000000000 ) ) ;
#5 = COORDINATED_UNIVERSAL_TIME_OFFSET ( 1, 0, .AHEAD. ) ;
#6 = CARTESIAN_POINT ( 'NONE',  ( 1.316288464743860707E-13, 1.499999999999987566, 37.69999999999998153 ) ) ;
#7 = CYLINDRICAL_SURFACE ( 'NONE', #57, 0.9499999999999996225 ) ;
#8 = CC_DESIGN_DATE_AND_TIME_ASSIGNMENT ( #71, #148, ( #144 ) ) ;
#9 = CLOSED_SHELL ( 'NONE', ( #42, #48, #73 ) ) ;
#10 = CONICAL_SURFACE ( 'NONE', #77, 1.199999999999992184, 0.7853981633974338461 ) ;
#11 = ORIENTED_EDGE ( 'NONE', *, *, #47, .T. ) ;
#12 = CALENDAR_DATE ( 2021, 16, 11 ) ;
#13 = DIRECTION ( 'NONE',  ( 3.491481338843133355E-15, -1.224646799147353207E-16, 1.000000000000000000 ) ) ;
#14 = CALENDAR_DATE ( 2021, 16, 11 ) ;
#15 = DIRECTION ( 'NONE',  ( -3.491481338843133355E-15, 1.224646799147353207E-16, -1.000000000000000000 ) ) ;
#16 = CYLINDRICAL_SURFACE ( 'NONE', #108, 1.499999999999990008 ) ;
#17 = CC_DESIGN_PERSON_AND_ORGANIZATION_ASSIGNMENT ( #111, #195, ( #43 ) ) ;
#18 = PERSON ( 'UNSPECIFIED', 'UNSPECIFIED', 'UNSPECIFIED', ('UNSPECIFIED'), ('UNSPECIFIED'), ('UNSPECIFIED') ) ;
#19 = CIRCLE ( 'NONE', #44, 1.199999999999992184 ) ;
#20 = LOCAL_TIME ( 16, 45, 9.000000000000000000, #132 ) ;
#21 = PRODUCT_RELATED_PRODUCT_CATEGORY ( 'detail', '', ( #180 ) ) ;
#22 = CC_DESIGN_SECURITY_CLASSIFICATION ( #162, ( #43 ) ) ;
#23 = DIRECTION ( 'NONE',  ( 0.0000000000000000000, 1.000000000000000000, 0.0000000000000000000 ) ) ;
#24 = EDGE_LOOP ( 'NONE', ( #11 ) ) ;
#25 = DIRECTION ( 'NONE',  ( 0.0000000000000000000, 0.0000000000000000000, 1.000000000000000000 ) ) ;
#26 = CARTESIAN_POINT ( 'NONE',  ( 1.326762908760390170E-13, 8.998558695971017012E-33, 37.99999999999999289 ) ) ;
#27 = EDGE_LOOP ( 'NONE', ( #210 ) ) ;
#28 = DIRECTION ( 'NONE',  ( -3.491481338843133355E-15, 1.227517819005651059E-16, -1.000000000000000000 ) ) ;
#29 = DATE_AND_TIME ( #12, #20 ) ;
#30 = COORDINATED_UNIVERSAL_TIME_OFFSET ( 1, 0, .AHEAD. ) ;
#31 = ADVANCED_BREP_SHAPE_REPRESENTATION ( '966142', ( #204, #206, #149 ), #202 ) ;
#32 =( LENGTH_UNIT ( ) NAMED_UNIT ( * ) SI_UNIT ( .MILLI., .METRE. ) );
#33 = CC_DESIGN_DATE_AND_TIME_ASSIGNMENT ( #177, #142, ( #162 ) ) ;
#34 = AXIS2_PLACEMENT_3D ( 'NONE', #26, #157, #155 ) ;
#35 = CARTESIAN_POINT ( 'NONE',  ( 0.0000000000000000000, 0.0000000000000000000, 0.0000000000000000000 ) ) ;
#36 = ORIENTED_EDGE ( 'NONE', *, *, #2, .T. ) ;
#37 =( NAMED_UNIT ( * ) SI_UNIT ( $, .STERADIAN. ) SOLID_ANGLE_UNIT ( ) );
#38 = ORIENTED_EDGE ( 'NONE', *, *, #2, .F. ) ;
#39 = PERSON_AND_ORGANIZATION_ROLE ( 'creator' ) ;
#40 = EDGE_LOOP ( 'NONE', ( #69 ) ) ;
#41 = COORDINATED_UNIVERSAL_TIME_OFFSET ( 1, 0, .AHEAD. ) ;
#42 = ADVANCED_FACE ( 'NONE', ( #175 ), #95, .T. ) ;
#43 = PRODUCT_DEFINITION_FORMATION_WITH_SPECIFIED_SOURCE ( 'ANY', '', #180, .NOT_KNOWN. ) ;
#44 = AXIS2_PLACEMENT_3D ( 'NONE', #159, #15, #139 ) ;
#45 = FACE_BOUND ( 'NONE', #191, .T. ) ;
#46 = DATE_AND_TIME ( #179, #126 ) ;
#47 = EDGE_CURVE ( 'NONE', #193, #193, #81, .T. ) ;
#48 = ADVANCED_FACE ( 'NONE', ( #131, #60 ), #7, .T. ) ;
#49 = EDGE_CURVE ( 'NONE', #62, #62, #221, .T. ) ;
#50 = COORDINATED_UNIVERSAL_TIME_OFFSET ( 1, 0, .AHEAD. ) ;
#51 = FACE_OUTER_BOUND ( 'NONE', #106, .T. ) ;
#52 = APPLICATION_PROTOCOL_DEFINITION ( 'international standard', 'config_control_design', 1994, #64 ) ;
#53 = AXIS2_PLACEMENT_3D ( 'NONE', #156, #28, #74 ) ;
#54 = APPROVAL_DATE_TIME ( #209, #165 ) ;
#55 = APPROVAL ( #163, 'UNSPECIFIED' ) ;
#56 = APPROVAL_STATUS ( 'not_yet_approved' ) ;
#57 = AXIS2_PLACEMENT_3D ( 'NONE', #169, #150, #167 ) ;
#58 = SECURITY_CLASSIFICATION_LEVEL ( 'unclassified' ) ;
#59 = FACE_OUTER_BOUND ( 'NONE', #27, .T. ) ;
#60 = FACE_OUTER_BOUND ( 'NONE', #40, .T. ) ;
#61 = APPROVAL_STATUS ( 'not_yet_approved' ) ;
#62 = VERTEX_POINT ( 'NONE', #119 ) ;
#63 = AXIS2_PLACEMENT_3D ( 'NONE', #208, #152, #187 ) ;
#64 = APPLICATION_CONTEXT ( 'configuration controlled 3d designs of mechanical parts and assemblies' ) ;
#65 = APPROVAL_PERSON_ORGANIZATION ( #127, #55, #100 ) ;
#66 = FACE_OUTER_BOUND ( 'NONE', #24, .T. ) ;
#67 = ORIENTED_EDGE ( 'NONE', *, *, #121, .T. ) ;
#68 = CARTESIAN_POINT ( 'NONE',  ( 1.658453635950487713E-14, -5.830709640276842159E-16, 4.749999999999999112 ) ) ;
#69 = ORIENTED_EDGE ( 'NONE', *, *, #121, .F. ) ;
#70 = PERSON_AND_ORGANIZATION ( #18, #113 ) ;
#71 = DATE_AND_TIME ( #14, #135 ) ;
#72 = APPROVAL_PERSON_ORGANIZATION ( #70, #165, #87 ) ;
#73 = ADVANCED_FACE ( 'NONE', ( #85 ), #124, .F. ) ;
#74 = DIRECTION ( 'NONE',  ( 0.0000000000000000000, 1.000000000000000000, 0.0000000000000000000 ) ) ;
#75 = DIRECTION ( 'NONE',  ( -3.491481338843133355E-15, 1.224646799147353207E-16, -1.000000000000000000 ) ) ;
#76 = PERSON_AND_ORGANIZATION ( #18, #113 ) ;
#77 = AXIS2_PLACEMENT_3D ( 'NONE', #129, #223, #23 ) ;
#78 = FACE_OUTER_BOUND ( 'NONE', #3, .T. ) ;
#79 = AXIS2_PLACEMENT_3D ( 'NONE', #205, #120, #143 ) ;
#80 = DIRECTION ( 'NONE',  ( 0.0000000000000000000, -1.000000000000000000, 0.0000000000000000000 ) ) ;
#81 = CIRCLE ( 'NONE', #199, 1.499999999999992006 ) ;
#82 = CARTESIAN_POINT ( 'NONE',  ( 1.658453635950487713E-14, -0.9500000000000005107, 4.749999999999999112 ) ) ;
#83 = EDGE_CURVE ( 'NONE', #220, #220, #196, .T. ) ;
#84 = DIRECTION ( 'NONE',  ( 3.491481338843133355E-15, -1.227517819005651059E-16, 1.000000000000000000 ) ) ;
#85 = FACE_OUTER_BOUND ( 'NONE', #125, .T. ) ;
#86 = APPLICATION_CONTEXT ( 'configuration controlled 3d designs of mechanical parts and assemblies' ) ;
#87 = APPROVAL_ROLE ( '' ) ;
#88 = DIRECTION ( 'NONE',  ( 4.275831445896959482E-31, 1.000000000000000000, 1.224646799147353207E-16 ) ) ;
#89 = ADVANCED_FACE ( 'NONE', ( #59, #45 ), #10, .T. ) ;
#90 = DIRECTION ( 'NONE',  ( -4.285855558155653280E-31, -1.000000000000000000, -1.227517819005651059E-16 ) ) ;
#91 = PERSON_AND_ORGANIZATION_ROLE ( 'design_owner' ) ;
#92 = EDGE_LOOP ( 'NONE', ( #173 ) ) ;
#93 = ORIENTED_EDGE ( 'NONE', *, *, #183, .F. ) ;
#94 = CC_DESIGN_APPROVAL ( #174, ( #43 ) ) ;
#95 = PLANE ( 'NONE',  #102 ) ;
#96 = PERSON_AND_ORGANIZATION ( #18, #113 ) ;
#97 = DIRECTION ( 'NONE',  ( -4.275831445896958607E-31, -1.000000000000000000, -1.224646799147353207E-16 ) ) ;
#98 = CARTESIAN_POINT ( 'NONE',  ( 1.658453635950487713E-14, -5.830709640276842159E-16, 4.749999999999999112 ) ) ;
#99 = CC_DESIGN_PERSON_AND_ORGANIZATION_ASSIGNMENT ( #151, #91, ( #180 ) ) ;
#100 = APPROVAL_ROLE ( '' ) ;
#101 = APPROVAL_ROLE ( '' ) ;
#102 = AXIS2_PLACEMENT_3D ( 'NONE', #160, #13, #1 ) ;
#103 = ADVANCED_FACE ( 'NONE', ( #66, #161 ), #16, .T. ) ;
#104 = CARTESIAN_POINT ( 'NONE',  ( 1.658453635950487713E-14, -0.9500000000000005107, 4.749999999999999112 ) ) ;
#105 = CLOSED_SHELL ( 'NONE', ( #103, #89, #190, #117, #137 ) ) ;
#106 = EDGE_LOOP ( 'NONE', ( #36 ) ) ;
#107 = APPLICATION_PROTOCOL_DEFINITION ( 'international standard', 'config_control_design', 1994, #86 ) ;
#108 = AXIS2_PLACEMENT_3D ( 'NONE', #35, #75, #88 ) ;
#109 = ORIENTED_EDGE ( 'NONE', *, *, #183, .T. ) ;
#110 = APPROVAL_DATE_TIME ( #46, #174 ) ;
#111 = PERSON_AND_ORGANIZATION ( #18, #113 ) ;
#112 = CARTESIAN_POINT ( 'NONE',  ( 1.316288464743860707E-13, -4.616918432785519503E-15, 37.69999999999998153 ) ) ;
#113 = ORGANIZATION ( 'UNSPECIFIED', 'UNSPECIFIED', '' ) ;
#114 = CALENDAR_DATE ( 2021, 16, 11 ) ;
#115 = CC_DESIGN_PERSON_AND_ORGANIZATION_ASSIGNMENT ( #181, #116, ( #162 ) ) ;
#116 = PERSON_AND_ORGANIZATION_ROLE ( 'classification_officer' ) ;
#117 = ADVANCED_FACE ( 'NONE', ( #136, #51 ), #146, .F. ) ;
#118 = AXIS2_PLACEMENT_3D ( 'NONE', #98, #84, #207 ) ;
#119 = CARTESIAN_POINT ( 'NONE',  ( -8.143125560495735626E-31, -0.9499999999999995115, -2.332283856110735384E-16 ) ) ;
#120 = DIRECTION ( 'NONE',  ( 3.491481338843133355E-15, -1.224646799147353207E-16, 1.000000000000000000 ) ) ;
#121 = EDGE_CURVE ( 'NONE', #201, #201, #170, .T. ) ;
#122 = ORIENTED_EDGE ( 'NONE', *, *, #83, .F. ) ;
#123 = PLANE ( 'NONE',  #34 ) ;
#124 = PLANE ( 'NONE',  #79 ) ;
#125 = EDGE_LOOP ( 'NONE', ( #188 ) ) ;
#126 = LOCAL_TIME ( 16, 45, 9.000000000000000000, #41 ) ;
#127 = PERSON_AND_ORGANIZATION ( #18, #113 ) ;
#128 = CARTESIAN_POINT ( 'NONE',  ( 2.676236915341602213E-14, 1.499999999999989564, 7.665047169429655582 ) ) ;
#129 = CARTESIAN_POINT ( 'NONE',  ( 1.326762908760390170E-13, -4.653657836759941152E-15, 37.99999999999999289 ) ) ;
#130 = CC_DESIGN_PERSON_AND_ORGANIZATION_ASSIGNMENT ( #203, #39, ( #144 ) ) ;
#131 = FACE_OUTER_BOUND ( 'NONE', #92, .T. ) ;
#132 = COORDINATED_UNIVERSAL_TIME_OFFSET ( 1, 0, .AHEAD. ) ;
#133 = PRODUCT_DEFINITION_SHAPE ( 'NONE', 'NONE',  #144 ) ;
#134 = CC_DESIGN_APPROVAL ( #55, ( #162 ) ) ;
#135 = LOCAL_TIME ( 16, 45, 9.000000000000000000, #50 ) ;
#136 = FACE_OUTER_BOUND ( 'NONE', #153, .T. ) ;
#137 = ADVANCED_FACE ( 'NONE', ( #78 ), #200, .F. ) ;
#138 = AXIS2_PLACEMENT_3D ( 'NONE', #147, #166, #97 ) ;
#139 = DIRECTION ( 'NONE',  ( 0.0000000000000000000, 1.000000000000000000, 0.0000000000000000000 ) ) ;
#140 = CC_DESIGN_APPROVAL ( #165, ( #144 ) ) ;
#141 = UNCERTAINTY_MEASURE_WITH_UNIT (LENGTH_MEASURE( 1.000000000000000082E-05 ), #32, 'distance_accuracy_value', 'NONE');
#142 = DATE_TIME_ROLE ( 'classification_date' ) ;
#143 = DIRECTION ( 'NONE',  ( -4.275831445896958607E-31, -1.000000000000000000, -1.224646799147353207E-16 ) ) ;
#144 = PRODUCT_DEFINITION ( 'UNKNOWN', '', #43, #194 ) ;
#145 = DIRECTION ( 'NONE',  ( -3.491481338843133355E-15, 1.224646799147353207E-16, -1.000000000000000000 ) ) ;
#146 = TOROIDAL_SURFACE ( 'NONE', #63, 8.949999999999999289, 8.000000000000000000 ) ;
#147 = CARTESIAN_POINT ( 'NONE',  ( 1.658453635950488028E-14, 1.124819836996383490E-32, 4.750000000000000000 ) ) ;
#148 = DATE_TIME_ROLE ( 'creation_date' ) ;
#149 = AXIS2_PLACEMENT_3D ( 'NONE', #171, #25, #185 ) ;
#150 = DIRECTION ( 'NONE',  ( 3.491481338843133355E-15, -1.227517819005651059E-16, 1.000000000000000000 ) ) ;
#151 = PERSON_AND_ORGANIZATION ( #18, #113 ) ;
#152 = DIRECTION ( 'NONE',  ( 3.491481338843133355E-15, -1.227517819005651059E-16, 1.000000000000000000 ) ) ;
#153 = EDGE_LOOP ( 'NONE', ( #168 ) ) ;
#154 = MECHANICAL_CONTEXT ( 'NONE', #64, 'mechanical' ) ;
#155 = DIRECTION ( 'NONE',  ( 4.275831445896958607E-31, 1.000000000000000000, 1.224646799147353207E-16 ) ) ;
#156 = CARTESIAN_POINT ( 'NONE',  ( 2.676236915341602213E-14, -3.578272343716888979E-16, 7.665047169429655582 ) ) ;
#157 = DIRECTION ( 'NONE',  ( -3.491481338843133355E-15, 1.224646799147353207E-16, -1.000000000000000000 ) ) ;
#158 = EDGE_LOOP ( 'NONE', ( #93 ) ) ;
#159 = CARTESIAN_POINT ( 'NONE',  ( 1.326762908760390170E-13, -4.653657836759941152E-15, 37.99999999999999289 ) ) ;
#160 = CARTESIAN_POINT ( 'NONE',  ( 1.658453635950488028E-14, 1.124819836996383490E-32, 4.750000000000000000 ) ) ;
#161 = FACE_OUTER_BOUND ( 'NONE', #172, .T. ) ;
#162 = SECURITY_CLASSIFICATION ( '', '', #58 ) ;
#163 = APPROVAL_STATUS ( 'not_yet_approved' ) ;
#164 = LOCAL_TIME ( 16, 45, 9.000000000000000000, #30 ) ;
#165 = APPROVAL ( #56, 'UNSPECIFIED' ) ;
#166 = DIRECTION ( 'NONE',  ( 3.491481338843133355E-15, -1.224646799147353207E-16, 1.000000000000000000 ) ) ;
#167 = DIRECTION ( 'NONE',  ( -4.285855558155653280E-31, -1.000000000000000000, -1.227517819005651552E-16 ) ) ;
#168 = ORIENTED_EDGE ( 'NONE', *, *, #83, .T. ) ;
#169 = CARTESIAN_POINT ( 'NONE',  ( -6.413731847436034514E-31, 0.0000000000000000000, -1.836965810494968570E-16 ) ) ;
#170 = CIRCLE ( 'NONE', #212, 0.9499999999999999556 ) ;
#171 = CARTESIAN_POINT ( 'NONE',  ( 0.0000000000000000000, 0.0000000000000000000, 0.0000000000000000000 ) ) ;
#172 = EDGE_LOOP ( 'NONE', ( #38 ) ) ;
#173 = ORIENTED_EDGE ( 'NONE', *, *, #49, .T. ) ;
#174 = APPROVAL ( #61, 'UNSPECIFIED' ) ;
#175 = FACE_OUTER_BOUND ( 'NONE', #186, .T. ) ;
#176 = LOCAL_TIME ( 16, 45, 9.000000000000000000, #5 ) ;
#177 = DATE_AND_TIME ( #114, #164 ) ;
#178 = DIRECTION ( 'NONE',  ( 3.491481338843133355E-15, -1.227517819005651059E-16, 1.000000000000000000 ) ) ;
#179 = CALENDAR_DATE ( 2021, 16, 11 ) ;
#180 = PRODUCT ( '966142', '966142', '', ( #154 ) ) ;
#181 = PERSON_AND_ORGANIZATION ( #18, #113 ) ;
#182 = AXIS2_PLACEMENT_3D ( 'NONE', #197, #178, #90 ) ;
#183 = EDGE_CURVE ( 'NONE', #217, #217, #19, .T. ) ;
#184 = APPROVAL_PERSON_ORGANIZATION ( #76, #174, #101 ) ;
#185 = DIRECTION ( 'NONE',  ( 1.000000000000000000, 0.0000000000000000000, 0.0000000000000000000 ) ) ;
#186 = EDGE_LOOP ( 'NONE', ( #67 ) ) ;
#187 = DIRECTION ( 'NONE',  ( -4.348522919579275296E-31, -1.000000000000000000, -1.227517819005651059E-16 ) ) ;
#188 = ORIENTED_EDGE ( 'NONE', *, *, #49, .F. ) ;
#189 = CALENDAR_DATE ( 2021, 16, 11 ) ;
#190 = ADVANCED_FACE ( 'NONE', ( #211 ), #123, .F. ) ;
#191 = EDGE_LOOP ( 'NONE', ( #109 ) ) ;
#192 = SHAPE_DEFINITION_REPRESENTATION ( #133, #31 ) ;
#193 = VERTEX_POINT ( 'NONE', #6 ) ;
#194 = DESIGN_CONTEXT ( 'detailed design', #86, 'design' ) ;
#195 = PERSON_AND_ORGANIZATION_ROLE ( 'design_supplier' ) ;
#196 = CIRCLE ( 'NONE', #118, 0.9499999999999999556 ) ;
#197 = CARTESIAN_POINT ( 'NONE',  ( -4.071562780247866937E-31, -8.234482691091623901E-33, -1.166141928055367446E-16 ) ) ;
#198 =( NAMED_UNIT ( * ) PLANE_ANGLE_UNIT ( ) SI_UNIT ( $, .RADIAN. ) );
#199 = AXIS2_PLACEMENT_3D ( 'NONE', #112, #145, #4 ) ;
#200 = PLANE ( 'NONE',  #138 ) ;
#201 = VERTEX_POINT ( 'NONE', #82 ) ;
#202 =( GEOMETRIC_REPRESENTATION_CONTEXT ( 3 ) GLOBAL_UNCERTAINTY_ASSIGNED_CONTEXT ( ( #141 ) ) GLOBAL_UNIT_ASSIGNED_CONTEXT ( ( #32, #198, #37 ) ) REPRESENTATION_CONTEXT ( 'NONE', 'WORKASPACE' ) );
#203 = PERSON_AND_ORGANIZATION ( #18, #113 ) ;
#204 = MANIFOLD_SOLID_BREP ( 'Corps-Déplacer/Copier1[1]', #105 ) ;
#205 = CARTESIAN_POINT ( 'NONE',  ( -2.137917073001454058E-30, 7.498803648657679327E-32, -6.123237862442165323E-16 ) ) ;
#206 = MANIFOLD_SOLID_BREP ( 'Corps-Déplacer/Copier1[2]', #9 ) ;
#207 = DIRECTION ( 'NONE',  ( 0.0000000000000000000, -1.000000000000000000, 0.0000000000000000000 ) ) ;
#208 = CARTESIAN_POINT ( 'NONE',  ( 1.658453635950487713E-14, 0.0000000000000000000, 4.749999999999999112 ) ) ;
#209 = DATE_AND_TIME ( #189, #176 ) ;
#210 = ORIENTED_EDGE ( 'NONE', *, *, #47, .F. ) ;
#211 = FACE_OUTER_BOUND ( 'NONE', #158, .T. ) ;
#212 = AXIS2_PLACEMENT_3D ( 'NONE', #68, #219, #80 ) ;
#213 = PERSON_AND_ORGANIZATION_ROLE ( 'creator' ) ;
#214 = VERTEX_POINT ( 'NONE', #128 ) ;
#215 = APPROVAL_DATE_TIME ( #29, #55 ) ;
#216 = CC_DESIGN_PERSON_AND_ORGANIZATION_ASSIGNMENT ( #96, #213, ( #43 ) ) ;
#217 = VERTEX_POINT ( 'NONE', #222 ) ;
#218 = CIRCLE ( 'NONE', #53, 1.499999999999990008 ) ;
#219 = DIRECTION ( 'NONE',  ( 3.491481338843133355E-15, -1.227517819005651059E-16, 1.000000000000000000 ) ) ;
#220 = VERTEX_POINT ( 'NONE', #104 ) ;
#221 = CIRCLE ( 'NONE', #182, 0.9499999999999995115 ) ;
#222 = CARTESIAN_POINT ( 'NONE',  ( 1.326762908760390170E-13, 1.199999999999987521, 37.99999999999999289 ) ) ;
#223 = DIRECTION ( 'NONE',  ( -3.491481338843133355E-15, 1.224646799147353207E-16, -1.000000000000000000 ) ) ;
ENDSEC;
END-ISO-10303-21;
