ISO-10303-21;
HEADER;
FILE_DESCRIPTION (( 'STEP AP203' ),
    '1' );
FILE_NAME ('966140.step',
    '2021-11-16T15:45:09',
    ( '' ),
    ( '' ),
    'SwSTEP 2.0',
    'SolidWorks 2019',
    '' );
FILE_SCHEMA (( 'CONFIG_CONTROL_DESIGN' ));
ENDSEC;

DATA;
#1 = CARTESIAN_POINT ( 'NONE',  ( 0.0000000000000000000, 0.0000000000000000000, 0.0000000000000000000 ) ) ;
#2 = FACE_OUTER_BOUND ( 'NONE', #191, .T. ) ;
#3 = ORIENTED_EDGE ( 'NONE', *, *, #45, .T. ) ;
#4 = FACE_OUTER_BOUND ( 'NONE', #166, .T. ) ;
#5 = FACE_OUTER_BOUND ( 'NONE', #55, .T. ) ;
#6 = PERSON_AND_ORGANIZATION ( #137, #13 ) ;
#7 = DIRECTION ( 'NONE',  ( -3.491481338843133355E-15, 1.224646799147353207E-16, -1.000000000000000000 ) ) ;
#8 = CARTESIAN_POINT ( 'NONE',  ( 1.316288464743860707E-13, 1.499999999999987566, 37.69999999999998153 ) ) ;
#9 = EDGE_CURVE ( 'NONE', #36, #36, #99, .T. ) ;
#10 = AXIS2_PLACEMENT_3D ( 'NONE', #75, #214, #117 ) ;
#11 = ADVANCED_FACE ( 'NONE', ( #114 ), #183, .F. ) ;
#12 = PRODUCT_DEFINITION_FORMATION_WITH_SPECIFIED_SOURCE ( 'ANY', '', #120, .NOT_KNOWN. ) ;
#13 = ORGANIZATION ( 'UNSPECIFIED', 'UNSPECIFIED', '' ) ;
#14 = AXIS2_PLACEMENT_3D ( 'NONE', #80, #152, #218 ) ;
#15 = APPROVAL ( #198, 'UNSPECIFIED' ) ;
#16 = PERSON_AND_ORGANIZATION ( #137, #13 ) ;
#17 = ORIENTED_EDGE ( 'NONE', *, *, #143, .F. ) ;
#18 = APPROVAL_ROLE ( '' ) ;
#19 = FACE_OUTER_BOUND ( 'NONE', #211, .T. ) ;
#20 = DIRECTION ( 'NONE',  ( -4.348708325974019258E-31, -1.000000000000000000, -1.227517819005651059E-16 ) ) ;
#21 = FACE_OUTER_BOUND ( 'NONE', #91, .T. ) ;
#22 = CARTESIAN_POINT ( 'NONE',  ( -7.714540004680168196E-31, -0.8999999999999993561, -2.209532074210169638E-16 ) ) ;
#23 = CARTESIAN_POINT ( 'NONE',  ( -3.857270002340083222E-31, -8.987882689079823035E-33, -1.104766037105084572E-16 ) ) ;
#24 = DATE_AND_TIME ( #182, #82 ) ;
#25 = LOCAL_TIME ( 16, 45, 9.000000000000000000, #161 ) ;
#26 = CLOSED_SHELL ( 'NONE', ( #222, #190, #158 ) ) ;
#27 = DATE_AND_TIME ( #126, #42 ) ;
#28 = CIRCLE ( 'NONE', #148, 1.499999999999990008 ) ;
#29 =( NAMED_UNIT ( * ) SI_UNIT ( $, .STERADIAN. ) SOLID_ANGLE_UNIT ( ) );
#30 = EDGE_LOOP ( 'NONE', ( #154 ) ) ;
#31 = PERSON_AND_ORGANIZATION ( #137, #13 ) ;
#32 = COORDINATED_UNIVERSAL_TIME_OFFSET ( 1, 0, .AHEAD. ) ;
#33 = DIRECTION ( 'NONE',  ( 3.491481338843133355E-15, -1.227517819005651059E-16, 1.000000000000000000 ) ) ;
#34 = ADVANCED_BREP_SHAPE_REPRESENTATION ( '966140', ( #44, #128, #155 ), #189 ) ;
#35 = EDGE_LOOP ( 'NONE', ( #93 ) ) ;
#36 = VERTEX_POINT ( 'NONE', #22 ) ;
#37 = APPROVAL_PERSON_ORGANIZATION ( #105, #151, #18 ) ;
#38 = DIRECTION ( 'NONE',  ( -4.285855558155653280E-31, -1.000000000000000000, -1.227517819005651059E-16 ) ) ;
#39 = VERTEX_POINT ( 'NONE', #41 ) ;
#40 = DIRECTION ( 'NONE',  ( 0.0000000000000000000, 1.000000000000000000, 0.0000000000000000000 ) ) ;
#41 = CARTESIAN_POINT ( 'NONE',  ( 1.326762908760390170E-13, 1.199999999999987521, 37.99999999999999289 ) ) ;
#42 = LOCAL_TIME ( 16, 45, 9.000000000000000000, #172 ) ;
#43 = EDGE_CURVE ( 'NONE', #78, #78, #157, .T. ) ;
#44 = MANIFOLD_SOLID_BREP ( 'Corps-Déplacer/Copier1[1]', #173 ) ;
#45 = EDGE_CURVE ( 'NONE', #217, #217, #28, .T. ) ;
#46 = EDGE_LOOP ( 'NONE', ( #213 ) ) ;
#47 = APPLICATION_PROTOCOL_DEFINITION ( 'international standard', 'config_control_design', 1994, #57 ) ;
#48 = PERSON_AND_ORGANIZATION ( #137, #13 ) ;
#49 = EDGE_LOOP ( 'NONE', ( #3 ) ) ;
#50 = PLANE ( 'NONE',  #171 ) ;
#51 = AXIS2_PLACEMENT_3D ( 'NONE', #186, #97, #169 ) ;
#52 = ORIENTED_EDGE ( 'NONE', *, *, #108, .T. ) ;
#53 = DIRECTION ( 'NONE',  ( 0.0000000000000000000, 1.000000000000000000, 0.0000000000000000000 ) ) ;
#54 = CC_DESIGN_DATE_AND_TIME_ASSIGNMENT ( #206, #203, ( #118 ) ) ;
#55 = EDGE_LOOP ( 'NONE', ( #177 ) ) ;
#56 = CYLINDRICAL_SURFACE ( 'NONE', #144, 0.8999999999999998002 ) ;
#57 = APPLICATION_CONTEXT ( 'configuration controlled 3d designs of mechanical parts and assemblies' ) ;
#58 = CARTESIAN_POINT ( 'NONE',  ( 1.571166602479409694E-14, -0.9000000000000007994, 4.499999999999999112 ) ) ;
#59 = COORDINATED_UNIVERSAL_TIME_OFFSET ( 1, 0, .AHEAD. ) ;
#60 = TOROIDAL_SURFACE ( 'NONE', #88, 8.900000000000000355, 8.000000000000000000 ) ;
#61 = CARTESIAN_POINT ( 'NONE',  ( 2.632485044422657406E-14, -3.731331124789331663E-16, 7.539736830714106830 ) ) ;
#62 = CC_DESIGN_PERSON_AND_ORGANIZATION_ASSIGNMENT ( #89, #162, ( #12 ) ) ;
#63 = CARTESIAN_POINT ( 'NONE',  ( -6.413731847436034514E-31, 0.0000000000000000000, -1.836965810494968570E-16 ) ) ;
#64 = LOCAL_TIME ( 16, 45, 9.000000000000000000, #32 ) ;
#65 = PRODUCT_RELATED_PRODUCT_CATEGORY ( 'detail', '', ( #120 ) ) ;
#66 = COORDINATED_UNIVERSAL_TIME_OFFSET ( 1, 0, .AHEAD. ) ;
#67 = APPROVAL_DATE_TIME ( #122, #192 ) ;
#68 = ADVANCED_FACE ( 'NONE', ( #116 ), #181, .F. ) ;
#69 = CC_DESIGN_APPROVAL ( #15, ( #118 ) ) ;
#70 = PERSON_AND_ORGANIZATION ( #137, #13 ) ;
#71 = MECHANICAL_CONTEXT ( 'NONE', #140, 'mechanical' ) ;
#72 = ADVANCED_FACE ( 'NONE', ( #81, #149 ), #103, .T. ) ;
#73 = CYLINDRICAL_SURFACE ( 'NONE', #124, 1.499999999999990008 ) ;
#74 = AXIS2_PLACEMENT_3D ( 'NONE', #163, #194, #53 ) ;
#75 = CARTESIAN_POINT ( 'NONE',  ( 1.326762908760390170E-13, -4.653657836759941152E-15, 37.99999999999999289 ) ) ;
#76 = PLANE ( 'NONE',  #139 ) ;
#77 = EDGE_LOOP ( 'NONE', ( #123 ) ) ;
#78 = VERTEX_POINT ( 'NONE', #58 ) ;
#79 = APPROVAL_DATE_TIME ( #24, #15 ) ;
#80 = CARTESIAN_POINT ( 'NONE',  ( 1.571166602479409694E-14, -5.523830185525428531E-16, 4.499999999999999112 ) ) ;
#81 = FACE_OUTER_BOUND ( 'NONE', #30, .T. ) ;
#82 = LOCAL_TIME ( 16, 45, 9.000000000000000000, #59 ) ;
#83 = PRODUCT_DEFINITION_SHAPE ( 'NONE', 'NONE',  #179 ) ;
#84 =( NAMED_UNIT ( * ) PLANE_ANGLE_UNIT ( ) SI_UNIT ( $, .RADIAN. ) );
#85 = DATE_TIME_ROLE ( 'creation_date' ) ;
#86 = EDGE_LOOP ( 'NONE', ( #52 ) ) ;
#87 = PERSON_AND_ORGANIZATION_ROLE ( 'creator' ) ;
#88 = AXIS2_PLACEMENT_3D ( 'NONE', #180, #138, #20 ) ;
#89 = PERSON_AND_ORGANIZATION ( #137, #13 ) ;
#90 = DIRECTION ( 'NONE',  ( -3.491481338843133355E-15, 1.224646799147353207E-16, -1.000000000000000000 ) ) ;
#91 = EDGE_LOOP ( 'NONE', ( #208 ) ) ;
#92 = CARTESIAN_POINT ( 'NONE',  ( -2.137917073001454058E-30, 7.498803648657679327E-32, -6.123237862442165323E-16 ) ) ;
#93 = ORIENTED_EDGE ( 'NONE', *, *, #143, .T. ) ;
#94 = FACE_OUTER_BOUND ( 'NONE', #49, .T. ) ;
#95 = CARTESIAN_POINT ( 'NONE',  ( 1.326762908760390170E-13, 8.998558695971017012E-33, 37.99999999999999289 ) ) ;
#96 = VERTEX_POINT ( 'NONE', #196 ) ;
#97 = DIRECTION ( 'NONE',  ( 3.491481338843133355E-15, -1.224646799147353207E-16, 1.000000000000000000 ) ) ;
#98 = DIRECTION ( 'NONE',  ( -4.275831445896958607E-31, -1.000000000000000000, -1.224646799147353207E-16 ) ) ;
#99 = CIRCLE ( 'NONE', #220, 0.8999999999999993561 ) ;
#100 = CC_DESIGN_PERSON_AND_ORGANIZATION_ASSIGNMENT ( #210, #174, ( #120 ) ) ;
#101 = CC_DESIGN_PERSON_AND_ORGANIZATION_ASSIGNMENT ( #70, #145, ( #12 ) ) ;
#102 = CIRCLE ( 'NONE', #193, 1.499999999999992006 ) ;
#103 = CONICAL_SURFACE ( 'NONE', #10, 1.199999999999992184, 0.7853981633974338461 ) ;
#104 = APPLICATION_PROTOCOL_DEFINITION ( 'international standard', 'config_control_design', 1994, #140 ) ;
#105 = PERSON_AND_ORGANIZATION ( #137, #13 ) ;
#106 = APPROVAL_PERSON_ORGANIZATION ( #31, #192, #160 ) ;
#107 = DIRECTION ( 'NONE',  ( 0.0000000000000000000, 0.0000000000000000000, 1.000000000000000000 ) ) ;
#108 = EDGE_CURVE ( 'NONE', #39, #39, #205, .T. ) ;
#109 = DIRECTION ( 'NONE',  ( 0.0000000000000000000, -1.000000000000000000, 0.0000000000000000000 ) ) ;
#110 = DIRECTION ( 'NONE',  ( -4.285855558155654155E-31, -1.000000000000000000, -1.227517819005650812E-16 ) ) ;
#111 = DIRECTION ( 'NONE',  ( 4.275831445896958607E-31, 1.000000000000000000, 1.224646799147353207E-16 ) ) ;
#112 = ADVANCED_FACE ( 'NONE', ( #19, #94 ), #60, .F. ) ;
#113 = CC_DESIGN_APPROVAL ( #192, ( #179 ) ) ;
#114 = FACE_OUTER_BOUND ( 'NONE', #77, .T. ) ;
#115 = CC_DESIGN_PERSON_AND_ORGANIZATION_ASSIGNMENT ( #16, #87, ( #179 ) ) ;
#116 = FACE_OUTER_BOUND ( 'NONE', #46, .T. ) ;
#117 = DIRECTION ( 'NONE',  ( 0.0000000000000000000, 1.000000000000000000, 0.0000000000000000000 ) ) ;
#118 = SECURITY_CLASSIFICATION ( '', '', #146 ) ;
#119 = CC_DESIGN_PERSON_AND_ORGANIZATION_ASSIGNMENT ( #48, #221, ( #118 ) ) ;
#120 = PRODUCT ( '966140', '966140', '', ( #71 ) ) ;
#121 = APPROVAL_PERSON_ORGANIZATION ( #6, #15, #130 ) ;
#122 = DATE_AND_TIME ( #207, #64 ) ;
#123 = ORIENTED_EDGE ( 'NONE', *, *, #108, .F. ) ;
#124 = AXIS2_PLACEMENT_3D ( 'NONE', #147, #90, #134 ) ;
#125 = AXIS2_PLACEMENT_3D ( 'NONE', #95, #7, #111 ) ;
#126 = CALENDAR_DATE ( 2021, 16, 11 ) ;
#127 = ORIENTED_EDGE ( 'NONE', *, *, #9, .T. ) ;
#128 = MANIFOLD_SOLID_BREP ( 'Corps-Déplacer/Copier1[2]', #26 ) ;
#129 = DIRECTION ( 'NONE',  ( -4.275831445896958607E-31, -1.000000000000000000, -1.224646799147353207E-16 ) ) ;
#130 = APPROVAL_ROLE ( '' ) ;
#131 = FACE_OUTER_BOUND ( 'NONE', #35, .T. ) ;
#132 = ORIENTED_EDGE ( 'NONE', *, *, #45, .F. ) ;
#133 = CC_DESIGN_SECURITY_CLASSIFICATION ( #118, ( #12 ) ) ;
#134 = DIRECTION ( 'NONE',  ( 4.275831445896959482E-31, 1.000000000000000000, 1.224646799147353207E-16 ) ) ;
#135 = UNCERTAINTY_MEASURE_WITH_UNIT (LENGTH_MEASURE( 1.000000000000000082E-05 ), #187, 'distance_accuracy_value', 'NONE');
#136 = DIRECTION ( 'NONE',  ( -3.491481338843133355E-15, 1.227517819005651059E-16, -1.000000000000000000 ) ) ;
#137 = PERSON ( 'UNSPECIFIED', 'UNSPECIFIED', 'UNSPECIFIED', ('UNSPECIFIED'), ('UNSPECIFIED'), ('UNSPECIFIED') ) ;
#138 = DIRECTION ( 'NONE',  ( 3.491481338843133355E-15, -1.227517819005651059E-16, 1.000000000000000000 ) ) ;
#139 = AXIS2_PLACEMENT_3D ( 'NONE', #92, #167, #98 ) ;
#140 = APPLICATION_CONTEXT ( 'configuration controlled 3d designs of mechanical parts and assemblies' ) ;
#141 = CALENDAR_DATE ( 2021, 16, 11 ) ;
#142 = APPROVAL_STATUS ( 'not_yet_approved' ) ;
#143 = EDGE_CURVE ( 'NONE', #96, #96, #219, .T. ) ;
#144 = AXIS2_PLACEMENT_3D ( 'NONE', #63, #204, #110 ) ;
#145 = PERSON_AND_ORGANIZATION_ROLE ( 'creator' ) ;
#146 = SECURITY_CLASSIFICATION_LEVEL ( 'unclassified' ) ;
#147 = CARTESIAN_POINT ( 'NONE',  ( 0.0000000000000000000, 0.0000000000000000000, 0.0000000000000000000 ) ) ;
#148 = AXIS2_PLACEMENT_3D ( 'NONE', #61, #136, #40 ) ;
#149 = FACE_BOUND ( 'NONE', #86, .T. ) ;
#150 = FACE_OUTER_BOUND ( 'NONE', #175, .T. ) ;
#151 = APPROVAL ( #142, 'UNSPECIFIED' ) ;
#152 = DIRECTION ( 'NONE',  ( 3.491481338843133355E-15, -1.227517819005651059E-16, 1.000000000000000000 ) ) ;
#153 = DESIGN_CONTEXT ( 'detailed design', #57, 'design' ) ;
#154 = ORIENTED_EDGE ( 'NONE', *, *, #188, .F. ) ;
#155 = AXIS2_PLACEMENT_3D ( 'NONE', #1, #107, #209 ) ;
#156 = LOCAL_TIME ( 16, 45, 9.000000000000000000, #66 ) ;
#157 = CIRCLE ( 'NONE', #14, 0.9000000000000003553 ) ;
#158 = ADVANCED_FACE ( 'NONE', ( #21 ), #76, .F. ) ;
#159 = APPROVAL_DATE_TIME ( #223, #151 ) ;
#160 = APPROVAL_ROLE ( '' ) ;
#161 = COORDINATED_UNIVERSAL_TIME_OFFSET ( 1, 0, .AHEAD. ) ;
#162 = PERSON_AND_ORGANIZATION_ROLE ( 'design_supplier' ) ;
#163 = CARTESIAN_POINT ( 'NONE',  ( 1.326762908760390170E-13, -4.653657836759941152E-15, 37.99999999999999289 ) ) ;
#164 = CC_DESIGN_APPROVAL ( #151, ( #12 ) ) ;
#165 = DIRECTION ( 'NONE',  ( -3.491481338843133355E-15, 1.224646799147353207E-16, -1.000000000000000000 ) ) ;
#166 = EDGE_LOOP ( 'NONE', ( #132 ) ) ;
#167 = DIRECTION ( 'NONE',  ( 3.491481338843133355E-15, -1.224646799147353207E-16, 1.000000000000000000 ) ) ;
#168 = VERTEX_POINT ( 'NONE', #8 ) ;
#169 = DIRECTION ( 'NONE',  ( -4.275831445896958607E-31, -1.000000000000000000, -1.224646799147353207E-16 ) ) ;
#170 = CARTESIAN_POINT ( 'NONE',  ( 1.571166602479409694E-14, -5.523830185525428531E-16, 4.499999999999999112 ) ) ;
#171 = AXIS2_PLACEMENT_3D ( 'NONE', #184, #197, #129 ) ;
#172 = COORDINATED_UNIVERSAL_TIME_OFFSET ( 1, 0, .AHEAD. ) ;
#173 = CLOSED_SHELL ( 'NONE', ( #185, #72, #11, #112, #68 ) ) ;
#174 = PERSON_AND_ORGANIZATION_ROLE ( 'design_owner' ) ;
#175 = EDGE_LOOP ( 'NONE', ( #17 ) ) ;
#176 = CALENDAR_DATE ( 2021, 16, 11 ) ;
#177 = ORIENTED_EDGE ( 'NONE', *, *, #188, .T. ) ;
#178 = CARTESIAN_POINT ( 'NONE',  ( 1.316288464743860707E-13, -4.616918432785519503E-15, 37.69999999999998153 ) ) ;
#179 = PRODUCT_DEFINITION ( 'UNKNOWN', '', #12, #153 ) ;
#180 = CARTESIAN_POINT ( 'NONE',  ( 1.571166602479409694E-14, 0.0000000000000000000, 4.499999999999999112 ) ) ;
#181 = PLANE ( 'NONE',  #51 ) ;
#182 = CALENDAR_DATE ( 2021, 16, 11 ) ;
#183 = PLANE ( 'NONE',  #125 ) ;
#184 = CARTESIAN_POINT ( 'NONE',  ( 1.571166602479410010E-14, 1.124819836996383490E-32, 4.500000000000000000 ) ) ;
#185 = ADVANCED_FACE ( 'NONE', ( #5, #4 ), #73, .T. ) ;
#186 = CARTESIAN_POINT ( 'NONE',  ( 1.571166602479410010E-14, 1.124819836996383490E-32, 4.500000000000000000 ) ) ;
#187 =( LENGTH_UNIT ( ) NAMED_UNIT ( * ) SI_UNIT ( .MILLI., .METRE. ) );
#188 = EDGE_CURVE ( 'NONE', #168, #168, #102, .T. ) ;
#189 =( GEOMETRIC_REPRESENTATION_CONTEXT ( 3 ) GLOBAL_UNCERTAINTY_ASSIGNED_CONTEXT ( ( #135 ) ) GLOBAL_UNIT_ASSIGNED_CONTEXT ( ( #187, #84, #29 ) ) REPRESENTATION_CONTEXT ( 'NONE', 'WORKASPACE' ) );
#190 = ADVANCED_FACE ( 'NONE', ( #2, #150 ), #56, .T. ) ;
#191 = EDGE_LOOP ( 'NONE', ( #127 ) ) ;
#192 = APPROVAL ( #212, 'UNSPECIFIED' ) ;
#193 = AXIS2_PLACEMENT_3D ( 'NONE', #178, #165, #216 ) ;
#194 = DIRECTION ( 'NONE',  ( -3.491481338843133355E-15, 1.224646799147353207E-16, -1.000000000000000000 ) ) ;
#195 = SHAPE_DEFINITION_REPRESENTATION ( #83, #34 ) ;
#196 = CARTESIAN_POINT ( 'NONE',  ( 1.571166602479409694E-14, -0.9000000000000007994, 4.499999999999999112 ) ) ;
#197 = DIRECTION ( 'NONE',  ( 3.491481338843133355E-15, -1.224646799147353207E-16, 1.000000000000000000 ) ) ;
#198 = APPROVAL_STATUS ( 'not_yet_approved' ) ;
#199 = DIRECTION ( 'NONE',  ( 3.491481338843133355E-15, -1.227517819005651059E-16, 1.000000000000000000 ) ) ;
#200 = AXIS2_PLACEMENT_3D ( 'NONE', #170, #33, #109 ) ;
#201 = CC_DESIGN_DATE_AND_TIME_ASSIGNMENT ( #27, #85, ( #179 ) ) ;
#202 = CARTESIAN_POINT ( 'NONE',  ( 2.632485044422657406E-14, 1.499999999999989564, 7.539736830714106830 ) ) ;
#203 = DATE_TIME_ROLE ( 'classification_date' ) ;
#204 = DIRECTION ( 'NONE',  ( 3.491481338843133355E-15, -1.227517819005651059E-16, 1.000000000000000000 ) ) ;
#205 = CIRCLE ( 'NONE', #74, 1.199999999999992184 ) ;
#206 = DATE_AND_TIME ( #141, #156 ) ;
#207 = CALENDAR_DATE ( 2021, 16, 11 ) ;
#208 = ORIENTED_EDGE ( 'NONE', *, *, #9, .F. ) ;
#209 = DIRECTION ( 'NONE',  ( 1.000000000000000000, 0.0000000000000000000, 0.0000000000000000000 ) ) ;
#210 = PERSON_AND_ORGANIZATION ( #137, #13 ) ;
#211 = EDGE_LOOP ( 'NONE', ( #215 ) ) ;
#212 = APPROVAL_STATUS ( 'not_yet_approved' ) ;
#213 = ORIENTED_EDGE ( 'NONE', *, *, #43, .F. ) ;
#214 = DIRECTION ( 'NONE',  ( -3.491481338843133355E-15, 1.224646799147353207E-16, -1.000000000000000000 ) ) ;
#215 = ORIENTED_EDGE ( 'NONE', *, *, #43, .T. ) ;
#216 = DIRECTION ( 'NONE',  ( 0.0000000000000000000, 1.000000000000000000, 0.0000000000000000000 ) ) ;
#217 = VERTEX_POINT ( 'NONE', #202 ) ;
#218 = DIRECTION ( 'NONE',  ( 0.0000000000000000000, -1.000000000000000000, 0.0000000000000000000 ) ) ;
#219 = CIRCLE ( 'NONE', #200, 0.9000000000000003553 ) ;
#220 = AXIS2_PLACEMENT_3D ( 'NONE', #23, #199, #38 ) ;
#221 = PERSON_AND_ORGANIZATION_ROLE ( 'classification_officer' ) ;
#222 = ADVANCED_FACE ( 'NONE', ( #131 ), #50, .T. ) ;
#223 = DATE_AND_TIME ( #176, #25 ) ;
ENDSEC;
END-ISO-10303-21;
