ISO-10303-21;
HEADER;
FILE_DESCRIPTION (( 'STEP AP203' ),
    '1' );
FILE_NAME ('966139.step',
    '2021-11-16T15:45:08',
    ( '' ),
    ( '' ),
    'SwSTEP 2.0',
    'SolidWorks 2019',
    '' );
FILE_SCHEMA (( 'CONFIG_CONTROL_DESIGN' ));
ENDSEC;

DATA;
#1 = DIRECTION ( 'NONE',  ( -4.275831445896958607E-31, -1.000000000000000000, -1.224646799147353207E-16 ) ) ;
#2 = CIRCLE ( 'NONE', #79, 1.499999999999992006 ) ;
#3 = CARTESIAN_POINT ( 'NONE',  ( 1.316288464743860707E-13, -4.616918432785519503E-15, 37.69999999999998153 ) ) ;
#4 =( NAMED_UNIT ( * ) PLANE_ANGLE_UNIT ( ) SI_UNIT ( $, .RADIAN. ) );
#5 = DIRECTION ( 'NONE',  ( 3.491481338843133355E-15, -1.227517819005651059E-16, 1.000000000000000000 ) ) ;
#6 = APPROVAL ( #155, 'UNSPECIFIED' ) ;
#7 = DIRECTION ( 'NONE',  ( 3.491481338843133355E-15, -1.227517819005651059E-16, 1.000000000000000000 ) ) ;
#8 = MECHANICAL_CONTEXT ( 'NONE', #108, 'mechanical' ) ;
#9 = DIRECTION ( 'NONE',  ( -4.275831445896958607E-31, -1.000000000000000000, -1.224646799147353207E-16 ) ) ;
#10 = ORIENTED_EDGE ( 'NONE', *, *, #52, .F. ) ;
#11 = AXIS2_PLACEMENT_3D ( 'NONE', #180, #199, #166 ) ;
#12 = PERSON_AND_ORGANIZATION_ROLE ( 'design_supplier' ) ;
#13 = DATE_AND_TIME ( #83, #175 ) ;
#14 = AXIS2_PLACEMENT_3D ( 'NONE', #22, #197, #143 ) ;
#15 = PERSON_AND_ORGANIZATION ( #37, #16 ) ;
#16 = ORGANIZATION ( 'UNSPECIFIED', 'UNSPECIFIED', '' ) ;
#17 = CC_DESIGN_APPROVAL ( #145, ( #105 ) ) ;
#18 = FACE_OUTER_BOUND ( 'NONE', #189, .T. ) ;
#19 = CC_DESIGN_DATE_AND_TIME_ASSIGNMENT ( #72, #66, ( #49 ) ) ;
#20 = FACE_OUTER_BOUND ( 'NONE', #192, .T. ) ;
#21 = DIRECTION ( 'NONE',  ( 3.491481338843133355E-15, -1.227517819005651059E-16, 1.000000000000000000 ) ) ;
#22 = CARTESIAN_POINT ( 'NONE',  ( 1.326762908760390170E-13, -4.653657836759941152E-15, 37.99999999999999289 ) ) ;
#23 = EDGE_LOOP ( 'NONE', ( #115 ) ) ;
#24 = ADVANCED_FACE ( 'NONE', ( #18 ), #93, .F. ) ;
#25 = DIRECTION ( 'NONE',  ( 0.0000000000000000000, 1.000000000000000000, 0.0000000000000000000 ) ) ;
#26 = CARTESIAN_POINT ( 'NONE',  ( 1.326762908760390170E-13, -4.653657836759941152E-15, 37.99999999999999289 ) ) ;
#27 = CIRCLE ( 'NONE', #101, 0.8499999999999992006 ) ;
#28 = CARTESIAN_POINT ( 'NONE',  ( 1.316288464743860707E-13, 1.499999999999987566, 37.69999999999998153 ) ) ;
#29 = ADVANCED_FACE ( 'NONE', ( #20 ), #94, .F. ) ;
#30 = ORIENTED_EDGE ( 'NONE', *, *, #157, .T. ) ;
#31 = APPROVAL_STATUS ( 'not_yet_approved' ) ;
#32 = CC_DESIGN_APPROVAL ( #6, ( #49 ) ) ;
#33 = DATE_AND_TIME ( #185, #222 ) ;
#34 = APPROVAL ( #31, 'UNSPECIFIED' ) ;
#35 = DATE_AND_TIME ( #200, #128 ) ;
#36 = ADVANCED_FACE ( 'NONE', ( #219 ), #151, .T. ) ;
#37 = PERSON ( 'UNSPECIFIED', 'UNSPECIFIED', 'UNSPECIFIED', ('UNSPECIFIED'), ('UNSPECIFIED'), ('UNSPECIFIED') ) ;
#38 = APPROVAL_PERSON_ORGANIZATION ( #119, #145, #121 ) ;
#39 = EDGE_CURVE ( 'NONE', #117, #117, #113, .T. ) ;
#40 = ORIENTED_EDGE ( 'NONE', *, *, #157, .F. ) ;
#41 =( LENGTH_UNIT ( ) NAMED_UNIT ( * ) SI_UNIT ( .MILLI., .METRE. ) );
#42 = CC_DESIGN_PERSON_AND_ORGANIZATION_ASSIGNMENT ( #138, #71, ( #186 ) ) ;
#43 = CARTESIAN_POINT ( 'NONE',  ( -6.413731847436034514E-31, 0.0000000000000000000, -1.836965810494968570E-16 ) ) ;
#44 = AXIS2_PLACEMENT_3D ( 'NONE', #204, #87, #89 ) ;
#45 = DIRECTION ( 'NONE',  ( 3.491481338843133355E-15, -1.227517819005651059E-16, 1.000000000000000000 ) ) ;
#46 = MANIFOLD_SOLID_BREP ( 'Corps-Déplacer/Copier1[2]', #58 ) ;
#47 = DATE_AND_TIME ( #50, #159 ) ;
#48 = AXIS2_PLACEMENT_3D ( 'NONE', #183, #170, #102 ) ;
#49 = SECURITY_CLASSIFICATION ( '', '', #106 ) ;
#50 = CALENDAR_DATE ( 2021, 16, 11 ) ;
#51 = PERSON_AND_ORGANIZATION ( #37, #16 ) ;
#52 = EDGE_CURVE ( 'NONE', #98, #98, #73, .T. ) ;
#53 = AXIS2_PLACEMENT_3D ( 'NONE', #160, #114, #1 ) ;
#54 = EDGE_CURVE ( 'NONE', #57, #57, #27, .T. ) ;
#55 = ADVANCED_FACE ( 'NONE', ( #168, #65 ), #220, .T. ) ;
#56 = EDGE_LOOP ( 'NONE', ( #148 ) ) ;
#57 = VERTEX_POINT ( 'NONE', #127 ) ;
#58 = CLOSED_SHELL ( 'NONE', ( #36, #184, #24 ) ) ;
#59 = LOCAL_TIME ( 16, 45, 8.000000000000000000, #86 ) ;
#60 = FACE_OUTER_BOUND ( 'NONE', #56, .T. ) ;
#61 = PRODUCT_DEFINITION ( 'UNKNOWN', '', #105, #140 ) ;
#62 = ORIENTED_EDGE ( 'NONE', *, *, #169, .T. ) ;
#63 = EDGE_LOOP ( 'NONE', ( #77 ) ) ;
#64 = COORDINATED_UNIVERSAL_TIME_OFFSET ( 1, 0, .AHEAD. ) ;
#65 = FACE_OUTER_BOUND ( 'NONE', #23, .T. ) ;
#66 = DATE_TIME_ROLE ( 'classification_date' ) ;
#67 = CC_DESIGN_PERSON_AND_ORGANIZATION_ASSIGNMENT ( #51, #88, ( #49 ) ) ;
#68 = PERSON_AND_ORGANIZATION ( #37, #16 ) ;
#69 = CC_DESIGN_APPROVAL ( #34, ( #61 ) ) ;
#70 = CALENDAR_DATE ( 2021, 16, 11 ) ;
#71 = PERSON_AND_ORGANIZATION_ROLE ( 'design_owner' ) ;
#72 = DATE_AND_TIME ( #70, #59 ) ;
#73 = CIRCLE ( 'NONE', #90, 0.8500000000000006439 ) ;
#74 = APPLICATION_CONTEXT ( 'configuration controlled 3d designs of mechanical parts and assemblies' ) ;
#75 = EDGE_LOOP ( 'NONE', ( #30 ) ) ;
#76 = FACE_OUTER_BOUND ( 'NONE', #214, .T. ) ;
#77 = ORIENTED_EDGE ( 'NONE', *, *, #39, .T. ) ;
#78 = FACE_OUTER_BOUND ( 'NONE', #99, .T. ) ;
#79 = AXIS2_PLACEMENT_3D ( 'NONE', #3, #209, #25 ) ;
#80 = CYLINDRICAL_SURFACE ( 'NONE', #193, 0.8499999999999998668 ) ;
#81 = CARTESIAN_POINT ( 'NONE',  ( 1.483879569008331360E-14, -0.8500000000000011990, 4.249999999999999112 ) ) ;
#82 = EDGE_LOOP ( 'NONE', ( #176 ) ) ;
#83 = CALENDAR_DATE ( 2021, 16, 11 ) ;
#84 = AXIS2_PLACEMENT_3D ( 'NONE', #132, #116, #163 ) ;
#85 = ADVANCED_FACE ( 'NONE', ( #123 ), #147, .F. ) ;
#86 = COORDINATED_UNIVERSAL_TIME_OFFSET ( 1, 0, .AHEAD. ) ;
#87 = DIRECTION ( 'NONE',  ( 3.491481338843133355E-15, -1.224646799147353207E-16, 1.000000000000000000 ) ) ;
#88 = PERSON_AND_ORGANIZATION_ROLE ( 'classification_officer' ) ;
#89 = DIRECTION ( 'NONE',  ( -4.275831445896958607E-31, -1.000000000000000000, -1.224646799147353207E-16 ) ) ;
#90 = AXIS2_PLACEMENT_3D ( 'NONE', #126, #5, #211 ) ;
#91 = APPROVAL_PERSON_ORGANIZATION ( #15, #6, #217 ) ;
#92 = DIRECTION ( 'NONE',  ( -3.491481338843133355E-15, 1.224646799147353207E-16, -1.000000000000000000 ) ) ;
#93 = PLANE ( 'NONE',  #53 ) ;
#94 = PLANE ( 'NONE',  #44 ) ;
#95 = CC_DESIGN_DATE_AND_TIME_ASSIGNMENT ( #13, #202, ( #61 ) ) ;
#96 = CARTESIAN_POINT ( 'NONE',  ( 1.326762908760390170E-13, 1.199999999999987521, 37.99999999999999289 ) ) ;
#97 = EDGE_LOOP ( 'NONE', ( #215 ) ) ;
#98 = VERTEX_POINT ( 'NONE', #181 ) ;
#99 = EDGE_LOOP ( 'NONE', ( #40 ) ) ;
#100 = VERTEX_POINT ( 'NONE', #81 ) ;
#101 = AXIS2_PLACEMENT_3D ( 'NONE', #167, #213, #198 ) ;
#102 = DIRECTION ( 'NONE',  ( 1.000000000000000000, 0.0000000000000000000, 0.0000000000000000000 ) ) ;
#103 = DIRECTION ( 'NONE',  ( 3.491481338843133355E-15, -1.224646799147353207E-16, 1.000000000000000000 ) ) ;
#104 = COORDINATED_UNIVERSAL_TIME_OFFSET ( 1, 0, .AHEAD. ) ;
#105 = PRODUCT_DEFINITION_FORMATION_WITH_SPECIFIED_SOURCE ( 'ANY', '', #186, .NOT_KNOWN. ) ;
#106 = SECURITY_CLASSIFICATION_LEVEL ( 'unclassified' ) ;
#107 = PERSON_AND_ORGANIZATION_ROLE ( 'creator' ) ;
#108 = APPLICATION_CONTEXT ( 'configuration controlled 3d designs of mechanical parts and assemblies' ) ;
#109 = COORDINATED_UNIVERSAL_TIME_OFFSET ( 1, 0, .AHEAD. ) ;
#110 = EDGE_CURVE ( 'NONE', #194, #194, #2, .T. ) ;
#111 = CC_DESIGN_PERSON_AND_ORGANIZATION_ASSIGNMENT ( #203, #12, ( #105 ) ) ;
#112 = CARTESIAN_POINT ( 'NONE',  ( 0.0000000000000000000, 0.0000000000000000000, 0.0000000000000000000 ) ) ;
#113 = CIRCLE ( 'NONE', #150, 1.199999999999992184 ) ;
#114 = DIRECTION ( 'NONE',  ( 3.491481338843133355E-15, -1.224646799147353207E-16, 1.000000000000000000 ) ) ;
#115 = ORIENTED_EDGE ( 'NONE', *, *, #169, .F. ) ;
#116 = DIRECTION ( 'NONE',  ( -3.491481338843133355E-15, 1.224646799147353207E-16, -1.000000000000000000 ) ) ;
#117 = VERTEX_POINT ( 'NONE', #96 ) ;
#118 = CIRCLE ( 'NONE', #11, 1.499999999999990008 ) ;
#119 = PERSON_AND_ORGANIZATION ( #37, #16 ) ;
#120 =( GEOMETRIC_REPRESENTATION_CONTEXT ( 3 ) GLOBAL_UNCERTAINTY_ASSIGNED_CONTEXT ( ( #223 ) ) GLOBAL_UNIT_ASSIGNED_CONTEXT ( ( #41, #4, #125 ) ) REPRESENTATION_CONTEXT ( 'NONE', 'WORKASPACE' ) );
#121 = APPROVAL_ROLE ( '' ) ;
#122 = SHAPE_DEFINITION_REPRESENTATION ( #152, #161 ) ;
#123 = FACE_OUTER_BOUND ( 'NONE', #149, .T. ) ;
#124 = MANIFOLD_SOLID_BREP ( 'Corps-Déplacer/Copier1[1]', #172 ) ;
#125 =( NAMED_UNIT ( * ) SI_UNIT ( $, .STERADIAN. ) SOLID_ANGLE_UNIT ( ) );
#126 = CARTESIAN_POINT ( 'NONE',  ( 1.483879569008331360E-14, -5.216950730774016876E-16, 4.249999999999999112 ) ) ;
#127 = CARTESIAN_POINT ( 'NONE',  ( -7.285954448864602518E-31, -0.8499999999999992006, -2.086780292309604137E-16 ) ) ;
#128 = LOCAL_TIME ( 16, 45, 8.000000000000000000, #171 ) ;
#129 = VERTEX_POINT ( 'NONE', #196 ) ;
#130 = FACE_BOUND ( 'NONE', #63, .T. ) ;
#131 = DIRECTION ( 'NONE',  ( -3.491481338843133355E-15, 1.224646799147353207E-16, -1.000000000000000000 ) ) ;
#132 = CARTESIAN_POINT ( 'NONE',  ( 1.326762908760390170E-13, 8.998558695971017012E-33, 37.99999999999999289 ) ) ;
#133 = TOROIDAL_SURFACE ( 'NONE', #158, 8.849999999999999645, 8.000000000000000000 ) ;
#134 = EDGE_LOOP ( 'NONE', ( #141 ) ) ;
#135 = APPROVAL_STATUS ( 'not_yet_approved' ) ;
#136 = CC_DESIGN_SECURITY_CLASSIFICATION ( #49, ( #105 ) ) ;
#137 = APPROVAL_DATE_TIME ( #33, #6 ) ;
#138 = PERSON_AND_ORGANIZATION ( #37, #16 ) ;
#139 = PERSON_AND_ORGANIZATION ( #37, #16 ) ;
#140 = DESIGN_CONTEXT ( 'detailed design', #74, 'design' ) ;
#141 = ORIENTED_EDGE ( 'NONE', *, *, #110, .T. ) ;
#142 = AXIS2_PLACEMENT_3D ( 'NONE', #191, #45, #144 ) ;
#143 = DIRECTION ( 'NONE',  ( 0.0000000000000000000, 1.000000000000000000, 0.0000000000000000000 ) ) ;
#144 = DIRECTION ( 'NONE',  ( 0.0000000000000000000, -1.000000000000000000, 0.0000000000000000000 ) ) ;
#145 = APPROVAL ( #135, 'UNSPECIFIED' ) ;
#146 = DIRECTION ( 'NONE',  ( -4.285855558155652404E-31, -1.000000000000000000, -1.227517819005650812E-16 ) ) ;
#147 = PLANE ( 'NONE',  #84 ) ;
#148 = ORIENTED_EDGE ( 'NONE', *, *, #52, .T. ) ;
#149 = EDGE_LOOP ( 'NONE', ( #162 ) ) ;
#150 = AXIS2_PLACEMENT_3D ( 'NONE', #26, #131, #164 ) ;
#151 = PLANE ( 'NONE',  #188 ) ;
#152 = PRODUCT_DEFINITION_SHAPE ( 'NONE', 'NONE',  #61 ) ;
#153 = APPROVAL_DATE_TIME ( #47, #34 ) ;
#154 = PRODUCT_RELATED_PRODUCT_CATEGORY ( 'detail', '', ( #186 ) ) ;
#155 = APPROVAL_STATUS ( 'not_yet_approved' ) ;
#156 = PERSON_AND_ORGANIZATION ( #37, #16 ) ;
#157 = EDGE_CURVE ( 'NONE', #100, #100, #205, .T. ) ;
#158 = AXIS2_PLACEMENT_3D ( 'NONE', #212, #7, #208 ) ;
#159 = LOCAL_TIME ( 16, 45, 8.000000000000000000, #104 ) ;
#160 = CARTESIAN_POINT ( 'NONE',  ( -2.137917073001454058E-30, 7.498803648657679327E-32, -6.123237862442165323E-16 ) ) ;
#161 = ADVANCED_BREP_SHAPE_REPRESENTATION ( '966139', ( #124, #46, #48 ), #120 ) ;
#162 = ORIENTED_EDGE ( 'NONE', *, *, #39, .F. ) ;
#163 = DIRECTION ( 'NONE',  ( 4.275831445896958607E-31, 1.000000000000000000, 1.224646799147353207E-16 ) ) ;
#164 = DIRECTION ( 'NONE',  ( 0.0000000000000000000, 1.000000000000000000, 0.0000000000000000000 ) ) ;
#165 = ORIENTED_EDGE ( 'NONE', *, *, #54, .F. ) ;
#166 = DIRECTION ( 'NONE',  ( 0.0000000000000000000, 1.000000000000000000, 0.0000000000000000000 ) ) ;
#167 = CARTESIAN_POINT ( 'NONE',  ( -3.642977224432300383E-31, -9.741282687068020802E-33, -1.043390146154801945E-16 ) ) ;
#168 = FACE_OUTER_BOUND ( 'NONE', #134, .T. ) ;
#169 = EDGE_CURVE ( 'NONE', #129, #129, #118, .T. ) ;
#170 = DIRECTION ( 'NONE',  ( 0.0000000000000000000, 0.0000000000000000000, 1.000000000000000000 ) ) ;
#171 = COORDINATED_UNIVERSAL_TIME_OFFSET ( 1, 0, .AHEAD. ) ;
#172 = CLOSED_SHELL ( 'NONE', ( #55, #177, #85, #190, #29 ) ) ;
#173 = APPROVAL_DATE_TIME ( #35, #145 ) ;
#174 = CARTESIAN_POINT ( 'NONE',  ( 1.483879569008331676E-14, 1.124819836996383627E-32, 4.250000000000000000 ) ) ;
#175 = LOCAL_TIME ( 16, 45, 8.000000000000000000, #109 ) ;
#176 = ORIENTED_EDGE ( 'NONE', *, *, #54, .T. ) ;
#177 = ADVANCED_FACE ( 'NONE', ( #179, #130 ), #195, .T. ) ;
#178 = APPLICATION_PROTOCOL_DEFINITION ( 'international standard', 'config_control_design', 1994, #108 ) ;
#179 = FACE_OUTER_BOUND ( 'NONE', #97, .T. ) ;
#180 = CARTESIAN_POINT ( 'NONE',  ( 2.586740097140778583E-14, -3.877382746112924675E-16, 7.408718094417392486 ) ) ;
#181 = CARTESIAN_POINT ( 'NONE',  ( 1.483879569008331360E-14, -0.8500000000000011990, 4.249999999999999112 ) ) ;
#182 = AXIS2_PLACEMENT_3D ( 'NONE', #112, #92, #206 ) ;
#183 = CARTESIAN_POINT ( 'NONE',  ( 0.0000000000000000000, 0.0000000000000000000, 0.0000000000000000000 ) ) ;
#184 = ADVANCED_FACE ( 'NONE', ( #210, #78 ), #80, .T. ) ;
#185 = CALENDAR_DATE ( 2021, 16, 11 ) ;
#186 = PRODUCT ( '966139', '966139', '', ( #8 ) ) ;
#187 = PERSON_AND_ORGANIZATION_ROLE ( 'creator' ) ;
#188 = AXIS2_PLACEMENT_3D ( 'NONE', #174, #103, #9 ) ;
#189 = EDGE_LOOP ( 'NONE', ( #165 ) ) ;
#190 = ADVANCED_FACE ( 'NONE', ( #60, #76 ), #133, .F. ) ;
#191 = CARTESIAN_POINT ( 'NONE',  ( 1.483879569008331360E-14, -5.216950730774016876E-16, 4.249999999999999112 ) ) ;
#192 = EDGE_LOOP ( 'NONE', ( #10 ) ) ;
#193 = AXIS2_PLACEMENT_3D ( 'NONE', #43, #21, #146 ) ;
#194 = VERTEX_POINT ( 'NONE', #28 ) ;
#195 = CONICAL_SURFACE ( 'NONE', #14, 1.199999999999992184, 0.7853981633974338461 ) ;
#196 = CARTESIAN_POINT ( 'NONE',  ( 2.586740097140778583E-14, 1.499999999999989564, 7.408718094417392486 ) ) ;
#197 = DIRECTION ( 'NONE',  ( -3.491481338843133355E-15, 1.224646799147353207E-16, -1.000000000000000000 ) ) ;
#198 = DIRECTION ( 'NONE',  ( -4.285855558155653280E-31, -1.000000000000000000, -1.227517819005651059E-16 ) ) ;
#199 = DIRECTION ( 'NONE',  ( -3.491481338843133355E-15, 1.227517819005651059E-16, -1.000000000000000000 ) ) ;
#200 = CALENDAR_DATE ( 2021, 16, 11 ) ;
#201 = APPROVAL_PERSON_ORGANIZATION ( #156, #34, #216 ) ;
#202 = DATE_TIME_ROLE ( 'creation_date' ) ;
#203 = PERSON_AND_ORGANIZATION ( #37, #16 ) ;
#204 = CARTESIAN_POINT ( 'NONE',  ( 1.483879569008331676E-14, 1.124819836996383627E-32, 4.250000000000000000 ) ) ;
#205 = CIRCLE ( 'NONE', #142, 0.8500000000000006439 ) ;
#206 = DIRECTION ( 'NONE',  ( 4.275831445896959482E-31, 1.000000000000000000, 1.224646799147353207E-16 ) ) ;
#207 = CC_DESIGN_PERSON_AND_ORGANIZATION_ASSIGNMENT ( #68, #107, ( #61 ) ) ;
#208 = DIRECTION ( 'NONE',  ( -4.348894832703450587E-31, -1.000000000000000000, -1.227517819005651059E-16 ) ) ;
#209 = DIRECTION ( 'NONE',  ( -3.491481338843133355E-15, 1.224646799147353207E-16, -1.000000000000000000 ) ) ;
#210 = FACE_OUTER_BOUND ( 'NONE', #82, .T. ) ;
#211 = DIRECTION ( 'NONE',  ( 0.0000000000000000000, -1.000000000000000000, 0.0000000000000000000 ) ) ;
#212 = CARTESIAN_POINT ( 'NONE',  ( 1.483879569008331360E-14, 0.0000000000000000000, 4.249999999999999112 ) ) ;
#213 = DIRECTION ( 'NONE',  ( 3.491481338843133355E-15, -1.227517819005651059E-16, 1.000000000000000000 ) ) ;
#214 = EDGE_LOOP ( 'NONE', ( #62 ) ) ;
#215 = ORIENTED_EDGE ( 'NONE', *, *, #110, .F. ) ;
#216 = APPROVAL_ROLE ( '' ) ;
#217 = APPROVAL_ROLE ( '' ) ;
#218 = APPLICATION_PROTOCOL_DEFINITION ( 'international standard', 'config_control_design', 1994, #74 ) ;
#219 = FACE_OUTER_BOUND ( 'NONE', #75, .T. ) ;
#220 = CYLINDRICAL_SURFACE ( 'NONE', #182, 1.499999999999990008 ) ;
#221 = CC_DESIGN_PERSON_AND_ORGANIZATION_ASSIGNMENT ( #139, #187, ( #105 ) ) ;
#222 = LOCAL_TIME ( 16, 45, 8.000000000000000000, #64 ) ;
#223 = UNCERTAINTY_MEASURE_WITH_UNIT (LENGTH_MEASURE( 1.000000000000000082E-05 ), #41, 'distance_accuracy_value', 'NONE');
ENDSEC;
END-ISO-10303-21;
