ISO-10303-21;
HEADER;
FILE_DESCRIPTION (( 'STEP AP203' ),
    '1' );
FILE_NAME ('966138.step',
    '2021-11-16T15:45:08',
    ( '' ),
    ( '' ),
    'SwSTEP 2.0',
    'SolidWorks 2019',
    '' );
FILE_SCHEMA (( 'CONFIG_CONTROL_DESIGN' ));
ENDSEC;

DATA;
#1 = SECURITY_CLASSIFICATION_LEVEL ( 'unclassified' ) ;
#2 = CLOSED_SHELL ( 'NONE', ( #185, #180, #171, #101, #43 ) ) ;
#3 = PERSON_AND_ORGANIZATION ( #221, #65 ) ;
#4 = EDGE_CURVE ( 'NONE', #190, #190, #24, .T. ) ;
#5 = LOCAL_TIME ( 16, 45, 8.000000000000000000, #142 ) ;
#6 = DIRECTION ( 'NONE',  ( 4.275831445896959482E-31, 1.000000000000000000, 1.224646799147353207E-16 ) ) ;
#7 = ADVANCED_FACE ( 'NONE', ( #189 ), #152, .T. ) ;
#8 = PLANE ( 'NONE',  #164 ) ;
#9 = CARTESIAN_POINT ( 'NONE',  ( 1.396592535537253342E-14, 1.124819836996383627E-32, 4.000000000000000000 ) ) ;
#10 = FACE_OUTER_BOUND ( 'NONE', #132, .T. ) ;
#11 = VERTEX_POINT ( 'NONE', #122 ) ;
#12 = LOCAL_TIME ( 16, 45, 8.000000000000000000, #222 ) ;
#13 = COORDINATED_UNIVERSAL_TIME_OFFSET ( 1, 0, .AHEAD. ) ;
#14 = PRODUCT ( '966138', '966138', '', ( #32 ) ) ;
#15 = AXIS2_PLACEMENT_3D ( 'NONE', #151, #31, #139 ) ;
#16 = DATE_TIME_ROLE ( 'creation_date' ) ;
#17 = PERSON_AND_ORGANIZATION_ROLE ( 'design_supplier' ) ;
#18 = ORIENTED_EDGE ( 'NONE', *, *, #140, .T. ) ;
#19 = MANIFOLD_SOLID_BREP ( 'Corps-Déplacer/Copier1[2]', #77 ) ;
#20 = AXIS2_PLACEMENT_3D ( 'NONE', #45, #193, #81 ) ;
#21 = DIRECTION ( 'NONE',  ( 3.491481338843133355E-15, -1.227517819005651059E-16, 1.000000000000000000 ) ) ;
#22 = APPROVAL_DATE_TIME ( #157, #78 ) ;
#23 = ORIENTED_EDGE ( 'NONE', *, *, #120, .T. ) ;
#24 = CIRCLE ( 'NONE', #74, 0.7999999999999991562 ) ;
#25 = CARTESIAN_POINT ( 'NONE',  ( 1.396592535537253342E-14, 1.124819836996383627E-32, 4.000000000000000000 ) ) ;
#26 = DIRECTION ( 'NONE',  ( -4.349082449591986113E-31, -1.000000000000000000, -1.227517819005651059E-16 ) ) ;
#27 = CARTESIAN_POINT ( 'NONE',  ( 1.396592535537253027E-14, 0.0000000000000000000, 3.999999999999999112 ) ) ;
#28 = PERSON_AND_ORGANIZATION ( #221, #65 ) ;
#29 = APPROVAL_PERSON_ORGANIZATION ( #28, #135, #123 ) ;
#30 = DIRECTION ( 'NONE',  ( 0.0000000000000000000, 1.000000000000000000, 0.0000000000000000000 ) ) ;
#31 = DIRECTION ( 'NONE',  ( 3.491481338843133355E-15, -1.227517819005651059E-16, 1.000000000000000000 ) ) ;
#32 = MECHANICAL_CONTEXT ( 'NONE', #100, 'mechanical' ) ;
#33 = CIRCLE ( 'NONE', #15, 0.7999999999999994893 ) ;
#34 = APPROVAL_STATUS ( 'not_yet_approved' ) ;
#35 = PERSON_AND_ORGANIZATION ( #221, #65 ) ;
#36 = COORDINATED_UNIVERSAL_TIME_OFFSET ( 1, 0, .AHEAD. ) ;
#37 = ORIENTED_EDGE ( 'NONE', *, *, #197, .F. ) ;
#38 = ORIENTED_EDGE ( 'NONE', *, *, #168, .F. ) ;
#39 = AXIS2_PLACEMENT_3D ( 'NONE', #82, #137, #118 ) ;
#40 = AXIS2_PLACEMENT_3D ( 'NONE', #25, #67, #97 ) ;
#41 = EDGE_LOOP ( 'NONE', ( #38 ) ) ;
#42 = CARTESIAN_POINT ( 'NONE',  ( 1.396592535537253027E-14, -4.910071276022603248E-16, 3.999999999999999112 ) ) ;
#43 = ADVANCED_FACE ( 'NONE', ( #188 ), #69, .F. ) ;
#44 = CYLINDRICAL_SURFACE ( 'NONE', #95, 0.7999999999999992673 ) ;
#45 = CARTESIAN_POINT ( 'NONE',  ( 1.316288464743860707E-13, -4.616918432785519503E-15, 37.69999999999998153 ) ) ;
#46 = PRODUCT_DEFINITION ( 'UNKNOWN', '', #210, #50 ) ;
#47 = DIRECTION ( 'NONE',  ( -4.275831445896958607E-31, -1.000000000000000000, -1.224646799147353207E-16 ) ) ;
#48 = CALENDAR_DATE ( 2021, 16, 11 ) ;
#49 = DIRECTION ( 'NONE',  ( 3.491481338843133355E-15, -1.224646799147353207E-16, 1.000000000000000000 ) ) ;
#50 = DESIGN_CONTEXT ( 'detailed design', #113, 'design' ) ;
#51 = APPLICATION_PROTOCOL_DEFINITION ( 'international standard', 'config_control_design', 1994, #113 ) ;
#52 = CC_DESIGN_DATE_AND_TIME_ASSIGNMENT ( #111, #183, ( #126 ) ) ;
#53 = AXIS2_PLACEMENT_3D ( 'NONE', #42, #117, #187 ) ;
#54 = ADVANCED_BREP_SHAPE_REPRESENTATION ( '966138', ( #99, #19, #87 ), #149 ) ;
#55 = CALENDAR_DATE ( 2021, 16, 11 ) ;
#56 = PERSON_AND_ORGANIZATION ( #221, #65 ) ;
#57 = EDGE_LOOP ( 'NONE', ( #112 ) ) ;
#58 = EDGE_LOOP ( 'NONE', ( #208 ) ) ;
#59 = CC_DESIGN_PERSON_AND_ORGANIZATION_ASSIGNMENT ( #191, #219, ( #14 ) ) ;
#60 = ORIENTED_EDGE ( 'NONE', *, *, #168, .T. ) ;
#61 = CARTESIAN_POINT ( 'NONE',  ( 1.396592535537253027E-14, -4.910071276022603248E-16, 3.999999999999999112 ) ) ;
#62 = DIRECTION ( 'NONE',  ( -3.491481338843133355E-15, 1.224646799147353207E-16, -1.000000000000000000 ) ) ;
#63 =( LENGTH_UNIT ( ) NAMED_UNIT ( * ) SI_UNIT ( .MILLI., .METRE. ) );
#64 = FACE_BOUND ( 'NONE', #145, .T. ) ;
#65 = ORGANIZATION ( 'UNSPECIFIED', 'UNSPECIFIED', '' ) ;
#66 = DIRECTION ( 'NONE',  ( -3.491481338843133355E-15, 1.224646799147353207E-16, -1.000000000000000000 ) ) ;
#67 = DIRECTION ( 'NONE',  ( 3.491481338843133355E-15, -1.224646799147353207E-16, 1.000000000000000000 ) ) ;
#68 = COORDINATED_UNIVERSAL_TIME_OFFSET ( 1, 0, .AHEAD. ) ;
#69 = PLANE ( 'NONE',  #40 ) ;
#70 = CC_DESIGN_APPROVAL ( #167, ( #210 ) ) ;
#71 = CARTESIAN_POINT ( 'NONE',  ( 1.316288464743860707E-13, 1.499999999999987566, 37.69999999999998153 ) ) ;
#72 = CC_DESIGN_PERSON_AND_ORGANIZATION_ASSIGNMENT ( #92, #160, ( #46 ) ) ;
#73 = ADVANCED_FACE ( 'NONE', ( #216, #217 ), #44, .T. ) ;
#74 = AXIS2_PLACEMENT_3D ( 'NONE', #61, #21, #143 ) ;
#75 = ORIENTED_EDGE ( 'NONE', *, *, #4, .F. ) ;
#76 = EDGE_LOOP ( 'NONE', ( #129 ) ) ;
#77 = CLOSED_SHELL ( 'NONE', ( #7, #73, #195 ) ) ;
#78 = APPROVAL ( #34, 'UNSPECIFIED' ) ;
#79 = CC_DESIGN_APPROVAL ( #78, ( #126 ) ) ;
#80 = DIRECTION ( 'NONE',  ( 4.275831445896958607E-31, 1.000000000000000000, 1.224646799147353207E-16 ) ) ;
#81 = DIRECTION ( 'NONE',  ( 0.0000000000000000000, 1.000000000000000000, 0.0000000000000000000 ) ) ;
#82 = CARTESIAN_POINT ( 'NONE',  ( 1.326762908760390170E-13, -4.653657836759941152E-15, 37.99999999999999289 ) ) ;
#83 = CIRCLE ( 'NONE', #178, 1.499999999999990008 ) ;
#84 = PLANE ( 'NONE',  #124 ) ;
#85 = CARTESIAN_POINT ( 'NONE',  ( 1.326762908760390170E-13, 8.998558695971017012E-33, 37.99999999999999289 ) ) ;
#86 = VERTEX_POINT ( 'NONE', #71 ) ;
#87 = AXIS2_PLACEMENT_3D ( 'NONE', #203, #194, #177 ) ;
#88 = CARTESIAN_POINT ( 'NONE',  ( 2.539219478909124216E-14, 1.499999999999989564, 7.272613634390693527 ) ) ;
#89 = EDGE_CURVE ( 'NONE', #172, #172, #214, .T. ) ;
#90 = CALENDAR_DATE ( 2021, 16, 11 ) ;
#91 = AXIS2_PLACEMENT_3D ( 'NONE', #202, #62, #30 ) ;
#92 = PERSON_AND_ORGANIZATION ( #221, #65 ) ;
#93 = CALENDAR_DATE ( 2021, 16, 11 ) ;
#94 = EDGE_LOOP ( 'NONE', ( #211 ) ) ;
#95 = AXIS2_PLACEMENT_3D ( 'NONE', #212, #174, #133 ) ;
#96 = CONICAL_SURFACE ( 'NONE', #91, 1.199999999999992184, 0.7853981633974338461 ) ;
#97 = DIRECTION ( 'NONE',  ( -4.275831445896958607E-31, -1.000000000000000000, -1.224646799147353207E-16 ) ) ;
#98 = DIRECTION ( 'NONE',  ( -3.491481338843133355E-15, 1.227517819005651059E-16, -1.000000000000000000 ) ) ;
#99 = MANIFOLD_SOLID_BREP ( 'Corps-Déplacer/Copier1[1]', #2 ) ;
#100 = APPLICATION_CONTEXT ( 'configuration controlled 3d designs of mechanical parts and assemblies' ) ;
#101 = ADVANCED_FACE ( 'NONE', ( #138, #10 ), #131, .F. ) ;
#102 =( NAMED_UNIT ( * ) PLANE_ANGLE_UNIT ( ) SI_UNIT ( $, .RADIAN. ) );
#103 = CARTESIAN_POINT ( 'NONE',  ( 1.396592535537253027E-14, -0.7999999999999997113, 3.999999999999999112 ) ) ;
#104 = APPROVAL_STATUS ( 'not_yet_approved' ) ;
#105 = AXIS2_PLACEMENT_3D ( 'NONE', #9, #107, #201 ) ;
#106 = CARTESIAN_POINT ( 'NONE',  ( 1.396592535537253027E-14, -0.7999999999999997113, 3.999999999999999112 ) ) ;
#107 = DIRECTION ( 'NONE',  ( 3.491481338843133355E-15, -1.224646799147353207E-16, 1.000000000000000000 ) ) ;
#108 = CC_DESIGN_PERSON_AND_ORGANIZATION_ASSIGNMENT ( #56, #128, ( #126 ) ) ;
#109 = CALENDAR_DATE ( 2021, 16, 11 ) ;
#110 = APPROVAL_PERSON_ORGANIZATION ( #125, #167, #146 ) ;
#111 = DATE_AND_TIME ( #109, #155 ) ;
#112 = ORIENTED_EDGE ( 'NONE', *, *, #140, .F. ) ;
#113 = APPLICATION_CONTEXT ( 'configuration controlled 3d designs of mechanical parts and assemblies' ) ;
#114 = SHAPE_DEFINITION_REPRESENTATION ( #158, #54 ) ;
#115 = CARTESIAN_POINT ( 'NONE',  ( 1.326762908760390170E-13, 1.199999999999987521, 37.99999999999999289 ) ) ;
#116 = EDGE_LOOP ( 'NONE', ( #209 ) ) ;
#117 = DIRECTION ( 'NONE',  ( 3.491481338843133355E-15, -1.227517819005651059E-16, 1.000000000000000000 ) ) ;
#118 = DIRECTION ( 'NONE',  ( 0.0000000000000000000, 1.000000000000000000, 0.0000000000000000000 ) ) ;
#119 = FACE_OUTER_BOUND ( 'NONE', #41, .T. ) ;
#120 = EDGE_CURVE ( 'NONE', #205, #205, #83, .T. ) ;
#121 = DIRECTION ( 'NONE',  ( 3.491481338843133355E-15, -1.227517819005651059E-16, 1.000000000000000000 ) ) ;
#122 = CARTESIAN_POINT ( 'NONE',  ( -6.857368893049039467E-31, -0.7999999999999994893, -1.964028510409039870E-16 ) ) ;
#123 = APPROVAL_ROLE ( '' ) ;
#124 = AXIS2_PLACEMENT_3D ( 'NONE', #85, #66, #80 ) ;
#125 = PERSON_AND_ORGANIZATION ( #221, #65 ) ;
#126 = SECURITY_CLASSIFICATION ( '', '', #1 ) ;
#127 = DATE_AND_TIME ( #55, #5 ) ;
#128 = PERSON_AND_ORGANIZATION_ROLE ( 'classification_officer' ) ;
#129 = ORIENTED_EDGE ( 'NONE', *, *, #89, .F. ) ;
#130 =( NAMED_UNIT ( * ) SI_UNIT ( $, .STERADIAN. ) SOLID_ANGLE_UNIT ( ) );
#131 = TOROIDAL_SURFACE ( 'NONE', #220, 8.799999999999998934, 8.000000000000000000 ) ;
#132 = EDGE_LOOP ( 'NONE', ( #23 ) ) ;
#133 = DIRECTION ( 'NONE',  ( -4.285855558155653280E-31, -1.000000000000000000, -1.227517819005650812E-16 ) ) ;
#134 = FACE_OUTER_BOUND ( 'NONE', #150, .T. ) ;
#135 = APPROVAL ( #104, 'UNSPECIFIED' ) ;
#136 = CIRCLE ( 'NONE', #20, 1.499999999999992006 ) ;
#137 = DIRECTION ( 'NONE',  ( -3.491481338843133355E-15, 1.224646799147353207E-16, -1.000000000000000000 ) ) ;
#138 = FACE_OUTER_BOUND ( 'NONE', #58, .T. ) ;
#139 = DIRECTION ( 'NONE',  ( -4.285855558155653280E-31, -1.000000000000000000, -1.227517819005651059E-16 ) ) ;
#140 = EDGE_CURVE ( 'NONE', #86, #86, #136, .T. ) ;
#141 = CC_DESIGN_PERSON_AND_ORGANIZATION_ASSIGNMENT ( #35, #182, ( #210 ) ) ;
#142 = COORDINATED_UNIVERSAL_TIME_OFFSET ( 1, 0, .AHEAD. ) ;
#143 = DIRECTION ( 'NONE',  ( 0.0000000000000000000, -1.000000000000000000, 0.0000000000000000000 ) ) ;
#144 = DATE_AND_TIME ( #48, #159 ) ;
#145 = EDGE_LOOP ( 'NONE', ( #199 ) ) ;
#146 = APPROVAL_ROLE ( '' ) ;
#147 = VERTEX_POINT ( 'NONE', #115 ) ;
#148 = EDGE_LOOP ( 'NONE', ( #60 ) ) ;
#149 =( GEOMETRIC_REPRESENTATION_CONTEXT ( 3 ) GLOBAL_UNCERTAINTY_ASSIGNED_CONTEXT ( ( #175 ) ) GLOBAL_UNIT_ASSIGNED_CONTEXT ( ( #63, #102, #130 ) ) REPRESENTATION_CONTEXT ( 'NONE', 'WORKASPACE' ) );
#150 = EDGE_LOOP ( 'NONE', ( #18 ) ) ;
#151 = CARTESIAN_POINT ( 'NONE',  ( -3.428684446524518858E-31, -1.049468268505621036E-32, -9.820142552045196883E-17 ) ) ;
#152 = PLANE ( 'NONE',  #105 ) ;
#153 = FACE_OUTER_BOUND ( 'NONE', #57, .T. ) ;
#154 = DIRECTION ( 'NONE',  ( -3.491481338843133355E-15, 1.224646799147353207E-16, -1.000000000000000000 ) ) ;
#155 = LOCAL_TIME ( 16, 45, 8.000000000000000000, #36 ) ;
#156 = LOCAL_TIME ( 16, 45, 8.000000000000000000, #13 ) ;
#157 = DATE_AND_TIME ( #90, #156 ) ;
#158 = PRODUCT_DEFINITION_SHAPE ( 'NONE', 'NONE',  #46 ) ;
#159 = LOCAL_TIME ( 16, 45, 8.000000000000000000, #68 ) ;
#160 = PERSON_AND_ORGANIZATION_ROLE ( 'creator' ) ;
#161 = CC_DESIGN_PERSON_AND_ORGANIZATION_ASSIGNMENT ( #3, #17, ( #210 ) ) ;
#162 = APPROVAL_STATUS ( 'not_yet_approved' ) ;
#163 = EDGE_LOOP ( 'NONE', ( #37 ) ) ;
#164 = AXIS2_PLACEMENT_3D ( 'NONE', #204, #49, #47 ) ;
#165 = APPROVAL_DATE_TIME ( #144, #135 ) ;
#166 = EDGE_LOOP ( 'NONE', ( #75 ) ) ;
#167 = APPROVAL ( #162, 'UNSPECIFIED' ) ;
#168 = EDGE_CURVE ( 'NONE', #11, #11, #33, .T. ) ;
#169 = CYLINDRICAL_SURFACE ( 'NONE', #173, 1.499999999999990008 ) ;
#170 = CARTESIAN_POINT ( 'NONE',  ( 0.0000000000000000000, 0.0000000000000000000, 0.0000000000000000000 ) ) ;
#171 = ADVANCED_FACE ( 'NONE', ( #176 ), #84, .F. ) ;
#172 = VERTEX_POINT ( 'NONE', #106 ) ;
#173 = AXIS2_PLACEMENT_3D ( 'NONE', #170, #154, #6 ) ;
#174 = DIRECTION ( 'NONE',  ( 3.491481338843133355E-15, -1.227517819005651059E-16, 1.000000000000000000 ) ) ;
#175 = UNCERTAINTY_MEASURE_WITH_UNIT (LENGTH_MEASURE( 1.000000000000000082E-05 ), #63, 'distance_accuracy_value', 'NONE');
#176 = FACE_OUTER_BOUND ( 'NONE', #163, .T. ) ;
#177 = DIRECTION ( 'NONE',  ( 1.000000000000000000, 0.0000000000000000000, 0.0000000000000000000 ) ) ;
#178 = AXIS2_PLACEMENT_3D ( 'NONE', #215, #98, #213 ) ;
#179 = APPROVAL_ROLE ( '' ) ;
#180 = ADVANCED_FACE ( 'NONE', ( #153, #64 ), #96, .T. ) ;
#181 = DATE_AND_TIME ( #93, #12 ) ;
#182 = PERSON_AND_ORGANIZATION_ROLE ( 'creator' ) ;
#183 = DATE_TIME_ROLE ( 'classification_date' ) ;
#184 = CC_DESIGN_SECURITY_CLASSIFICATION ( #126, ( #210 ) ) ;
#185 = ADVANCED_FACE ( 'NONE', ( #134, #200 ), #169, .T. ) ;
#186 = CIRCLE ( 'NONE', #39, 1.199999999999992184 ) ;
#187 = DIRECTION ( 'NONE',  ( 0.0000000000000000000, -1.000000000000000000, 0.0000000000000000000 ) ) ;
#188 = FACE_OUTER_BOUND ( 'NONE', #166, .T. ) ;
#189 = FACE_OUTER_BOUND ( 'NONE', #94, .T. ) ;
#190 = VERTEX_POINT ( 'NONE', #103 ) ;
#191 = PERSON_AND_ORGANIZATION ( #221, #65 ) ;
#192 = CC_DESIGN_APPROVAL ( #135, ( #46 ) ) ;
#193 = DIRECTION ( 'NONE',  ( -3.491481338843133355E-15, 1.224646799147353207E-16, -1.000000000000000000 ) ) ;
#194 = DIRECTION ( 'NONE',  ( 0.0000000000000000000, 0.0000000000000000000, 1.000000000000000000 ) ) ;
#195 = ADVANCED_FACE ( 'NONE', ( #119 ), #8, .F. ) ;
#196 = PERSON_AND_ORGANIZATION ( #221, #65 ) ;
#197 = EDGE_CURVE ( 'NONE', #147, #147, #186, .T. ) ;
#198 = APPROVAL_DATE_TIME ( #127, #167 ) ;
#199 = ORIENTED_EDGE ( 'NONE', *, *, #197, .T. ) ;
#200 = FACE_OUTER_BOUND ( 'NONE', #116, .T. ) ;
#201 = DIRECTION ( 'NONE',  ( -4.275831445896958607E-31, -1.000000000000000000, -1.224646799147353207E-16 ) ) ;
#202 = CARTESIAN_POINT ( 'NONE',  ( 1.326762908760390170E-13, -4.653657836759941152E-15, 37.99999999999999289 ) ) ;
#203 = CARTESIAN_POINT ( 'NONE',  ( 0.0000000000000000000, 0.0000000000000000000, 0.0000000000000000000 ) ) ;
#204 = CARTESIAN_POINT ( 'NONE',  ( -2.137917073001454058E-30, 7.498803648657679327E-32, -6.123237862442165323E-16 ) ) ;
#205 = VERTEX_POINT ( 'NONE', #88 ) ;
#206 = PRODUCT_RELATED_PRODUCT_CATEGORY ( 'detail', '', ( #14 ) ) ;
#207 = APPROVAL_PERSON_ORGANIZATION ( #196, #78, #179 ) ;
#208 = ORIENTED_EDGE ( 'NONE', *, *, #4, .T. ) ;
#209 = ORIENTED_EDGE ( 'NONE', *, *, #120, .F. ) ;
#210 = PRODUCT_DEFINITION_FORMATION_WITH_SPECIFIED_SOURCE ( 'ANY', '', #14, .NOT_KNOWN. ) ;
#211 = ORIENTED_EDGE ( 'NONE', *, *, #89, .T. ) ;
#212 = CARTESIAN_POINT ( 'NONE',  ( -6.413731847436034514E-31, 0.0000000000000000000, -1.836965810494968570E-16 ) ) ;
#213 = DIRECTION ( 'NONE',  ( 0.0000000000000000000, 1.000000000000000000, 0.0000000000000000000 ) ) ;
#214 = CIRCLE ( 'NONE', #53, 0.7999999999999991562 ) ;
#215 = CARTESIAN_POINT ( 'NONE',  ( 2.539219478909124216E-14, -4.017191550935422408E-16, 7.272613634390693527 ) ) ;
#216 = FACE_OUTER_BOUND ( 'NONE', #148, .T. ) ;
#217 = FACE_OUTER_BOUND ( 'NONE', #76, .T. ) ;
#218 = APPLICATION_PROTOCOL_DEFINITION ( 'international standard', 'config_control_design', 1994, #100 ) ;
#219 = PERSON_AND_ORGANIZATION_ROLE ( 'design_owner' ) ;
#220 = AXIS2_PLACEMENT_3D ( 'NONE', #27, #121, #26 ) ;
#221 = PERSON ( 'UNSPECIFIED', 'UNSPECIFIED', 'UNSPECIFIED', ('UNSPECIFIED'), ('UNSPECIFIED'), ('UNSPECIFIED') ) ;
#222 = COORDINATED_UNIVERSAL_TIME_OFFSET ( 1, 0, .AHEAD. ) ;
#223 = CC_DESIGN_DATE_AND_TIME_ASSIGNMENT ( #181, #16, ( #46 ) ) ;
ENDSEC;
END-ISO-10303-21;
