ISO-10303-21;
HEADER;
FILE_DESCRIPTION (( 'STEP AP203' ),
    '1' );
FILE_NAME ('966136.step',
    '2021-11-16T15:45:07',
    ( '' ),
    ( '' ),
    'SwSTEP 2.0',
    'SolidWorks 2019',
    '' );
FILE_SCHEMA (( 'CONFIG_CONTROL_DESIGN' ));
ENDSEC;

DATA;
#1 = CLOSED_SHELL ( 'NONE', ( #21, #141, #120 ) ) ;
#2 = DATE_AND_TIME ( #98, #147 ) ;
#3 = APPROVAL_DATE_TIME ( #99, #12 ) ;
#4 = PERSON_AND_ORGANIZATION ( #198, #214 ) ;
#5 = COORDINATED_UNIVERSAL_TIME_OFFSET ( 1, 0, .AHEAD. ) ;
#6 = PRODUCT_DEFINITION_SHAPE ( 'NONE', 'NONE',  #16 ) ;
#7 = DATE_TIME_ROLE ( 'creation_date' ) ;
#8 = LOCAL_TIME ( 16, 45, 7.000000000000000000, #95 ) ;
#9 = MANIFOLD_SOLID_BREP ( 'Corps-Déplacer/Copier1[1]', #31 ) ;
#10 = DATE_AND_TIME ( #82, #143 ) ;
#11 = EDGE_LOOP ( 'NONE', ( #87 ) ) ;
#12 = APPROVAL ( #217, 'UNSPECIFIED' ) ;
#13 = ORIENTED_EDGE ( 'NONE', *, *, #94, .T. ) ;
#14 = EDGE_LOOP ( 'NONE', ( #52 ) ) ;
#15 = DIRECTION ( 'NONE',  ( 3.491481338843133355E-15, -1.227517819005651059E-16, 1.000000000000000000 ) ) ;
#16 = PRODUCT_DEFINITION ( 'UNKNOWN', '', #110, #68 ) ;
#17 = VERTEX_POINT ( 'NONE', #60 ) ;
#18 = CARTESIAN_POINT ( 'NONE',  ( -2.137917073001454058E-30, 7.498803648657679327E-32, -6.123237862442165323E-16 ) ) ;
#19 = APPROVAL_PERSON_ORGANIZATION ( #48, #160, #27 ) ;
#20 = FACE_OUTER_BOUND ( 'NONE', #14, .T. ) ;
#21 = ADVANCED_FACE ( 'NONE', ( #150 ), #218, .T. ) ;
#22 = DIRECTION ( 'NONE',  ( 3.491481338843133355E-15, -1.224646799147353207E-16, 1.000000000000000000 ) ) ;
#23 = AXIS2_PLACEMENT_3D ( 'NONE', #190, #57, #140 ) ;
#24 = CALENDAR_DATE ( 2021, 16, 11 ) ;
#25 = APPROVAL ( #176, 'UNSPECIFIED' ) ;
#26 = UNCERTAINTY_MEASURE_WITH_UNIT (LENGTH_MEASURE( 1.000000000000000082E-05 ), #63, 'distance_accuracy_value', 'NONE');
#27 = APPROVAL_ROLE ( '' ) ;
#28 = MECHANICAL_CONTEXT ( 'NONE', #168, 'mechanical' ) ;
#29 = CC_DESIGN_PERSON_AND_ORGANIZATION_ASSIGNMENT ( #164, #163, ( #111 ) ) ;
#30 =( NAMED_UNIT ( * ) PLANE_ANGLE_UNIT ( ) SI_UNIT ( $, .RADIAN. ) );
#31 = CLOSED_SHELL ( 'NONE', ( #64, #43, #220, #178, #102 ) ) ;
#32 = ADVANCED_BREP_SHAPE_REPRESENTATION ( '966136', ( #9, #158, #58 ), #114 ) ;
#33 = EDGE_LOOP ( 'NONE', ( #166 ) ) ;
#34 = CIRCLE ( 'NONE', #151, 1.199999999999992184 ) ;
#35 = CC_DESIGN_PERSON_AND_ORGANIZATION_ASSIGNMENT ( #144, #212, ( #16 ) ) ;
#36 = CC_DESIGN_DATE_AND_TIME_ASSIGNMENT ( #10, #117, ( #196 ) ) ;
#37 = DIRECTION ( 'NONE',  ( 3.491481338843133355E-15, -1.224646799147353207E-16, 1.000000000000000000 ) ) ;
#38 = FACE_OUTER_BOUND ( 'NONE', #11, .T. ) ;
#39 = AXIS2_PLACEMENT_3D ( 'NONE', #139, #167, #92 ) ;
#40 = FACE_OUTER_BOUND ( 'NONE', #71, .T. ) ;
#41 = CARTESIAN_POINT ( 'NONE',  ( 1.309305502066175008E-14, 1.124819836996383627E-32, 3.750000000000000000 ) ) ;
#42 = FACE_OUTER_BOUND ( 'NONE', #51, .T. ) ;
#43 = ADVANCED_FACE ( 'NONE', ( #157, #78 ), #104, .T. ) ;
#44 = DIRECTION ( 'NONE',  ( -4.275831445896958607E-31, -1.000000000000000000, -1.224646799147353207E-16 ) ) ;
#45 = VERTEX_POINT ( 'NONE', #66 ) ;
#46 =( NAMED_UNIT ( * ) SI_UNIT ( $, .STERADIAN. ) SOLID_ANGLE_UNIT ( ) );
#47 = EDGE_CURVE ( 'NONE', #17, #17, #79, .T. ) ;
#48 = PERSON_AND_ORGANIZATION ( #198, #214 ) ;
#49 = PERSON_AND_ORGANIZATION_ROLE ( 'design_supplier' ) ;
#50 = EDGE_CURVE ( 'NONE', #138, #138, #34, .T. ) ;
#51 = EDGE_LOOP ( 'NONE', ( #105 ) ) ;
#52 = ORIENTED_EDGE ( 'NONE', *, *, #70, .F. ) ;
#53 = EDGE_LOOP ( 'NONE', ( #13 ) ) ;
#54 = AXIS2_PLACEMENT_3D ( 'NONE', #188, #221, #109 ) ;
#55 = APPROVAL_ROLE ( '' ) ;
#56 = PLANE ( 'NONE',  #132 ) ;
#57 = DIRECTION ( 'NONE',  ( 3.491481338843133355E-15, -1.227517819005651059E-16, 1.000000000000000000 ) ) ;
#58 = AXIS2_PLACEMENT_3D ( 'NONE', #100, #145, #161 ) ;
#59 = DIRECTION ( 'NONE',  ( 3.491481338843133355E-15, -1.227517819005651059E-16, 1.000000000000000000 ) ) ;
#60 = CARTESIAN_POINT ( 'NONE',  ( 2.490102604378477613E-14, 1.499999999999989564, 7.131937314617146306 ) ) ;
#61 = PLANE ( 'NONE',  #211 ) ;
#62 = TOROIDAL_SURFACE ( 'NONE', #137, 8.750000000000000000, 8.000000000000000000 ) ;
#63 =( LENGTH_UNIT ( ) NAMED_UNIT ( * ) SI_UNIT ( .MILLI., .METRE. ) );
#64 = ADVANCED_FACE ( 'NONE', ( #42, #205 ), #90, .T. ) ;
#65 = SHAPE_DEFINITION_REPRESENTATION ( #6, #32 ) ;
#66 = CARTESIAN_POINT ( 'NONE',  ( -6.428783337233476416E-31, -0.7499999999999997780, -1.841276728508475602E-16 ) ) ;
#67 = CIRCLE ( 'NONE', #39, 1.499999999999992006 ) ;
#68 = DESIGN_CONTEXT ( 'detailed design', #76, 'design' ) ;
#69 = VERTEX_POINT ( 'NONE', #193 ) ;
#70 = EDGE_CURVE ( 'NONE', #155, #155, #85, .T. ) ;
#71 = EDGE_LOOP ( 'NONE', ( #200 ) ) ;
#72 = APPROVAL_PERSON_ORGANIZATION ( #213, #25, #194 ) ;
#73 = DIRECTION ( 'NONE',  ( 0.0000000000000000000, -1.000000000000000000, 0.0000000000000000000 ) ) ;
#74 = FACE_OUTER_BOUND ( 'NONE', #33, .T. ) ;
#75 = CARTESIAN_POINT ( 'NONE',  ( 1.309305502066174693E-14, -4.603191821271190607E-16, 3.749999999999999112 ) ) ;
#76 = APPLICATION_CONTEXT ( 'configuration controlled 3d designs of mechanical parts and assemblies' ) ;
#77 = DIRECTION ( 'NONE',  ( -4.285855558155653280E-31, -1.000000000000000000, -1.227517819005651059E-16 ) ) ;
#78 = FACE_BOUND ( 'NONE', #201, .T. ) ;
#79 = CIRCLE ( 'NONE', #54, 1.499999999999990008 ) ;
#80 = APPROVAL_DATE_TIME ( #2, #160 ) ;
#81 = PERSON_AND_ORGANIZATION ( #198, #214 ) ;
#82 = CALENDAR_DATE ( 2021, 16, 11 ) ;
#83 = LOCAL_TIME ( 16, 45, 7.000000000000000000, #127 ) ;
#84 = COORDINATED_UNIVERSAL_TIME_OFFSET ( 1, 0, .AHEAD. ) ;
#85 = CIRCLE ( 'NONE', #195, 0.7499999999999993339 ) ;
#86 = ORIENTED_EDGE ( 'NONE', *, *, #115, .F. ) ;
#87 = ORIENTED_EDGE ( 'NONE', *, *, #70, .T. ) ;
#88 = APPROVAL_PERSON_ORGANIZATION ( #199, #12, #55 ) ;
#89 = DIRECTION ( 'NONE',  ( 0.0000000000000000000, 1.000000000000000000, 0.0000000000000000000 ) ) ;
#90 = CYLINDRICAL_SURFACE ( 'NONE', #154, 1.499999999999990008 ) ;
#91 = CARTESIAN_POINT ( 'NONE',  ( 1.326762908760390170E-13, 8.998558695971017012E-33, 37.99999999999999289 ) ) ;
#92 = DIRECTION ( 'NONE',  ( 0.0000000000000000000, 1.000000000000000000, 0.0000000000000000000 ) ) ;
#93 = DIRECTION ( 'NONE',  ( -3.491481338843133355E-15, 1.224646799147353207E-16, -1.000000000000000000 ) ) ;
#94 = EDGE_CURVE ( 'NONE', #69, #69, #202, .T. ) ;
#95 = COORDINATED_UNIVERSAL_TIME_OFFSET ( 1, 0, .AHEAD. ) ;
#96 = AXIS2_PLACEMENT_3D ( 'NONE', #219, #170, #136 ) ;
#97 = DATE_AND_TIME ( #24, #189 ) ;
#98 = CALENDAR_DATE ( 2021, 16, 11 ) ;
#99 = DATE_AND_TIME ( #130, #8 ) ;
#100 = CARTESIAN_POINT ( 'NONE',  ( 0.0000000000000000000, 0.0000000000000000000, 0.0000000000000000000 ) ) ;
#101 = AXIS2_PLACEMENT_3D ( 'NONE', #156, #209, #124 ) ;
#102 = ADVANCED_FACE ( 'NONE', ( #20 ), #56, .F. ) ;
#103 = EDGE_LOOP ( 'NONE', ( #203 ) ) ;
#104 = CONICAL_SURFACE ( 'NONE', #101, 1.199999999999992184, 0.7853981633974338461 ) ;
#105 = ORIENTED_EDGE ( 'NONE', *, *, #115, .T. ) ;
#106 = DIRECTION ( 'NONE',  ( -4.275831445896958607E-31, -1.000000000000000000, -1.224646799147353207E-16 ) ) ;
#107 = CARTESIAN_POINT ( 'NONE',  ( 1.309305502066174693E-14, 0.0000000000000000000, 3.749999999999999112 ) ) ;
#108 = DIRECTION ( 'NONE',  ( 4.275831445896958607E-31, 1.000000000000000000, 1.224646799147353207E-16 ) ) ;
#109 = DIRECTION ( 'NONE',  ( 0.0000000000000000000, 1.000000000000000000, 0.0000000000000000000 ) ) ;
#110 = PRODUCT_DEFINITION_FORMATION_WITH_SPECIFIED_SOURCE ( 'ANY', '', #111, .NOT_KNOWN. ) ;
#111 = PRODUCT ( '966136', '966136', '', ( #28 ) ) ;
#112 = CC_DESIGN_PERSON_AND_ORGANIZATION_ASSIGNMENT ( #81, #128, ( #196 ) ) ;
#113 = CALENDAR_DATE ( 2021, 16, 11 ) ;
#114 =( GEOMETRIC_REPRESENTATION_CONTEXT ( 3 ) GLOBAL_UNCERTAINTY_ASSIGNED_CONTEXT ( ( #26 ) ) GLOBAL_UNIT_ASSIGNED_CONTEXT ( ( #63, #30, #46 ) ) REPRESENTATION_CONTEXT ( 'NONE', 'WORKASPACE' ) );
#115 = EDGE_CURVE ( 'NONE', #192, #192, #67, .T. ) ;
#116 = EDGE_LOOP ( 'NONE', ( #86 ) ) ;
#117 = DATE_TIME_ROLE ( 'classification_date' ) ;
#118 = ORIENTED_EDGE ( 'NONE', *, *, #50, .T. ) ;
#119 = ORIENTED_EDGE ( 'NONE', *, *, #47, .F. ) ;
#120 = ADVANCED_FACE ( 'NONE', ( #74 ), #61, .F. ) ;
#121 = CARTESIAN_POINT ( 'NONE',  ( -6.413731847436034514E-31, 0.0000000000000000000, -1.836965810494968570E-16 ) ) ;
#122 = PLANE ( 'NONE',  #180 ) ;
#123 = AXIS2_PLACEMENT_3D ( 'NONE', #121, #185, #77 ) ;
#124 = DIRECTION ( 'NONE',  ( 0.0000000000000000000, 1.000000000000000000, 0.0000000000000000000 ) ) ;
#125 = DIRECTION ( 'NONE',  ( -4.275831445896958607E-31, -1.000000000000000000, -1.224646799147353207E-16 ) ) ;
#126 = CC_DESIGN_APPROVAL ( #25, ( #110 ) ) ;
#127 = COORDINATED_UNIVERSAL_TIME_OFFSET ( 1, 0, .AHEAD. ) ;
#128 = PERSON_AND_ORGANIZATION_ROLE ( 'classification_officer' ) ;
#129 = CARTESIAN_POINT ( 'NONE',  ( 1.309305502066174693E-14, -0.7499999999999997780, 3.749999999999999112 ) ) ;
#130 = CALENDAR_DATE ( 2021, 16, 11 ) ;
#131 = PERSON_AND_ORGANIZATION_ROLE ( 'creator' ) ;
#132 = AXIS2_PLACEMENT_3D ( 'NONE', #41, #22, #44 ) ;
#133 = AXIS2_PLACEMENT_3D ( 'NONE', #184, #37, #106 ) ;
#134 = ORIENTED_EDGE ( 'NONE', *, *, #94, .F. ) ;
#135 = PRODUCT_RELATED_PRODUCT_CATEGORY ( 'detail', '', ( #111 ) ) ;
#136 = DIRECTION ( 'NONE',  ( 0.0000000000000000000, -1.000000000000000000, 0.0000000000000000000 ) ) ;
#137 = AXIS2_PLACEMENT_3D ( 'NONE', #107, #59, #175 ) ;
#138 = VERTEX_POINT ( 'NONE', #208 ) ;
#139 = CARTESIAN_POINT ( 'NONE',  ( 1.316288464743860707E-13, -4.616918432785519503E-15, 37.69999999999998153 ) ) ;
#140 = DIRECTION ( 'NONE',  ( -4.285855558155653280E-31, -1.000000000000000000, -1.227517819005651059E-16 ) ) ;
#141 = ADVANCED_FACE ( 'NONE', ( #222, #152 ), #169, .T. ) ;
#142 = APPROVAL_STATUS ( 'not_yet_approved' ) ;
#143 = LOCAL_TIME ( 16, 45, 7.000000000000000000, #5 ) ;
#144 = PERSON_AND_ORGANIZATION ( #198, #214 ) ;
#145 = DIRECTION ( 'NONE',  ( 0.0000000000000000000, 0.0000000000000000000, 1.000000000000000000 ) ) ;
#146 = APPLICATION_PROTOCOL_DEFINITION ( 'international standard', 'config_control_design', 1994, #168 ) ;
#147 = LOCAL_TIME ( 16, 45, 7.000000000000000000, #159 ) ;
#148 = APPROVAL_DATE_TIME ( #97, #25 ) ;
#149 = EDGE_LOOP ( 'NONE', ( #197 ) ) ;
#150 = FACE_OUTER_BOUND ( 'NONE', #53, .T. ) ;
#151 = AXIS2_PLACEMENT_3D ( 'NONE', #223, #93, #89 ) ;
#152 = FACE_OUTER_BOUND ( 'NONE', #216, .T. ) ;
#153 = DIRECTION ( 'NONE',  ( 4.275831445896959482E-31, 1.000000000000000000, 1.224646799147353207E-16 ) ) ;
#154 = AXIS2_PLACEMENT_3D ( 'NONE', #187, #173, #153 ) ;
#155 = VERTEX_POINT ( 'NONE', #129 ) ;
#156 = CARTESIAN_POINT ( 'NONE',  ( 1.326762908760390170E-13, -4.653657836759941152E-15, 37.99999999999999289 ) ) ;
#157 = FACE_OUTER_BOUND ( 'NONE', #116, .T. ) ;
#158 = MANIFOLD_SOLID_BREP ( 'Corps-Déplacer/Copier1[2]', #1 ) ;
#159 = COORDINATED_UNIVERSAL_TIME_OFFSET ( 1, 0, .AHEAD. ) ;
#160 = APPROVAL ( #142, 'UNSPECIFIED' ) ;
#161 = DIRECTION ( 'NONE',  ( 1.000000000000000000, 0.0000000000000000000, 0.0000000000000000000 ) ) ;
#162 = DATE_AND_TIME ( #113, #83 ) ;
#163 = PERSON_AND_ORGANIZATION_ROLE ( 'design_owner' ) ;
#164 = PERSON_AND_ORGANIZATION ( #198, #214 ) ;
#165 = CC_DESIGN_APPROVAL ( #12, ( #196 ) ) ;
#166 = ORIENTED_EDGE ( 'NONE', *, *, #204, .F. ) ;
#167 = DIRECTION ( 'NONE',  ( -3.491481338843133355E-15, 1.224646799147353207E-16, -1.000000000000000000 ) ) ;
#168 = APPLICATION_CONTEXT ( 'configuration controlled 3d designs of mechanical parts and assemblies' ) ;
#169 = CYLINDRICAL_SURFACE ( 'NONE', #123, 0.7499999999999995559 ) ;
#170 = DIRECTION ( 'NONE',  ( 3.491481338843133355E-15, -1.227517819005651059E-16, 1.000000000000000000 ) ) ;
#171 = CC_DESIGN_PERSON_AND_ORGANIZATION_ASSIGNMENT ( #215, #49, ( #110 ) ) ;
#172 = CC_DESIGN_APPROVAL ( #160, ( #16 ) ) ;
#173 = DIRECTION ( 'NONE',  ( -3.491481338843133355E-15, 1.224646799147353207E-16, -1.000000000000000000 ) ) ;
#174 = CC_DESIGN_SECURITY_CLASSIFICATION ( #196, ( #110 ) ) ;
#175 = DIRECTION ( 'NONE',  ( -4.365125093687771441E-31, -1.000000000000000000, -1.227517819005651059E-16 ) ) ;
#176 = APPROVAL_STATUS ( 'not_yet_approved' ) ;
#177 = CARTESIAN_POINT ( 'NONE',  ( 1.316288464743860707E-13, 1.499999999999987566, 37.69999999999998153 ) ) ;
#178 = ADVANCED_FACE ( 'NONE', ( #38, #40 ), #62, .F. ) ;
#179 = SECURITY_CLASSIFICATION_LEVEL ( 'unclassified' ) ;
#180 = AXIS2_PLACEMENT_3D ( 'NONE', #91, #186, #108 ) ;
#181 = CC_DESIGN_DATE_AND_TIME_ASSIGNMENT ( #162, #7, ( #16 ) ) ;
#182 = EDGE_LOOP ( 'NONE', ( #119 ) ) ;
#183 = CIRCLE ( 'NONE', #23, 0.7499999999999997780 ) ;
#184 = CARTESIAN_POINT ( 'NONE',  ( 1.309305502066175008E-14, 1.124819836996383627E-32, 3.750000000000000000 ) ) ;
#185 = DIRECTION ( 'NONE',  ( 3.491481338843133355E-15, -1.227517819005651059E-16, 1.000000000000000000 ) ) ;
#186 = DIRECTION ( 'NONE',  ( -3.491481338843133355E-15, 1.224646799147353207E-16, -1.000000000000000000 ) ) ;
#187 = CARTESIAN_POINT ( 'NONE',  ( 0.0000000000000000000, 0.0000000000000000000, 0.0000000000000000000 ) ) ;
#188 = CARTESIAN_POINT ( 'NONE',  ( 2.490102604378477613E-14, -4.151388316452668329E-16, 7.131937314617146306 ) ) ;
#189 = LOCAL_TIME ( 16, 45, 7.000000000000000000, #84 ) ;
#190 = CARTESIAN_POINT ( 'NONE',  ( -3.214391668616737332E-31, -1.124808268304440128E-32, -9.206383642542375544E-17 ) ) ;
#191 = APPLICATION_PROTOCOL_DEFINITION ( 'international standard', 'config_control_design', 1994, #76 ) ;
#192 = VERTEX_POINT ( 'NONE', #177 ) ;
#193 = CARTESIAN_POINT ( 'NONE',  ( 1.309305502066174693E-14, -0.7499999999999997780, 3.749999999999999112 ) ) ;
#194 = APPROVAL_ROLE ( '' ) ;
#195 = AXIS2_PLACEMENT_3D ( 'NONE', #75, #15, #73 ) ;
#196 = SECURITY_CLASSIFICATION ( '', '', #179 ) ;
#197 = ORIENTED_EDGE ( 'NONE', *, *, #204, .T. ) ;
#198 = PERSON ( 'UNSPECIFIED', 'UNSPECIFIED', 'UNSPECIFIED', ('UNSPECIFIED'), ('UNSPECIFIED'), ('UNSPECIFIED') ) ;
#199 = PERSON_AND_ORGANIZATION ( #198, #214 ) ;
#200 = ORIENTED_EDGE ( 'NONE', *, *, #47, .T. ) ;
#201 = EDGE_LOOP ( 'NONE', ( #118 ) ) ;
#202 = CIRCLE ( 'NONE', #96, 0.7499999999999993339 ) ;
#203 = ORIENTED_EDGE ( 'NONE', *, *, #50, .F. ) ;
#204 = EDGE_CURVE ( 'NONE', #45, #45, #183, .T. ) ;
#205 = FACE_OUTER_BOUND ( 'NONE', #182, .T. ) ;
#206 = DIRECTION ( 'NONE',  ( 3.491481338843133355E-15, -1.224646799147353207E-16, 1.000000000000000000 ) ) ;
#207 = CC_DESIGN_PERSON_AND_ORGANIZATION_ASSIGNMENT ( #4, #131, ( #110 ) ) ;
#208 = CARTESIAN_POINT ( 'NONE',  ( 1.326762908760390170E-13, 1.199999999999987521, 37.99999999999999289 ) ) ;
#209 = DIRECTION ( 'NONE',  ( -3.491481338843133355E-15, 1.224646799147353207E-16, -1.000000000000000000 ) ) ;
#210 = FACE_OUTER_BOUND ( 'NONE', #103, .T. ) ;
#211 = AXIS2_PLACEMENT_3D ( 'NONE', #18, #206, #125 ) ;
#212 = PERSON_AND_ORGANIZATION_ROLE ( 'creator' ) ;
#213 = PERSON_AND_ORGANIZATION ( #198, #214 ) ;
#214 = ORGANIZATION ( 'UNSPECIFIED', 'UNSPECIFIED', '' ) ;
#215 = PERSON_AND_ORGANIZATION ( #198, #214 ) ;
#216 = EDGE_LOOP ( 'NONE', ( #134 ) ) ;
#217 = APPROVAL_STATUS ( 'not_yet_approved' ) ;
#218 = PLANE ( 'NONE',  #133 ) ;
#219 = CARTESIAN_POINT ( 'NONE',  ( 1.309305502066174693E-14, -4.603191821271190607E-16, 3.749999999999999112 ) ) ;
#220 = ADVANCED_FACE ( 'NONE', ( #210 ), #122, .F. ) ;
#221 = DIRECTION ( 'NONE',  ( -3.491481338843133355E-15, 1.227517819005651059E-16, -1.000000000000000000 ) ) ;
#222 = FACE_OUTER_BOUND ( 'NONE', #149, .T. ) ;
#223 = CARTESIAN_POINT ( 'NONE',  ( 1.326762908760390170E-13, -4.653657836759941152E-15, 37.99999999999999289 ) ) ;
ENDSEC;
END-ISO-10303-21;
