ISO-10303-21;
HEADER;
FILE_DESCRIPTION (( 'STEP AP203' ),
    '1' );
FILE_NAME ('966134.step',
    '2021-11-16T15:45:07',
    ( '' ),
    ( '' ),
    'SwSTEP 2.0',
    'SolidWorks 2019',
    '' );
FILE_SCHEMA (( 'CONFIG_CONTROL_DESIGN' ));
ENDSEC;

DATA;
#1 = DIRECTION ( 'NONE',  ( 1.000000000000000000, 0.0000000000000000000, 0.0000000000000000000 ) ) ;
#2 = EDGE_LOOP ( 'NONE', ( #3 ) ) ;
#3 = ORIENTED_EDGE ( 'NONE', *, *, #156, .T. ) ;
#4 = LOCAL_TIME ( 16, 45, 7.000000000000000000, #33 ) ;
#5 = EDGE_LOOP ( 'NONE', ( #140 ) ) ;
#6 =( NAMED_UNIT ( * ) PLANE_ANGLE_UNIT ( ) SI_UNIT ( $, .RADIAN. ) );
#7 = APPLICATION_CONTEXT ( 'configuration controlled 3d designs of mechanical parts and assemblies' ) ;
#8 = DIRECTION ( 'NONE',  ( -3.491481338843133355E-15, 1.227517819005651059E-16, -1.000000000000000000 ) ) ;
#9 = APPROVAL_STATUS ( 'not_yet_approved' ) ;
#10 = CIRCLE ( 'NONE', #154, 1.199999999999992184 ) ;
#11 = DIRECTION ( 'NONE',  ( 3.491481338843133355E-15, -1.227517819005651059E-16, 1.000000000000000000 ) ) ;
#12 = APPROVAL_STATUS ( 'not_yet_approved' ) ;
#13 = CARTESIAN_POINT ( 'NONE',  ( -2.137917073001454058E-30, 7.498803648657679327E-32, -6.123237862442165323E-16 ) ) ;
#14 = APPROVAL_DATE_TIME ( #166, #135 ) ;
#15 = VERTEX_POINT ( 'NONE', #98 ) ;
#16 = CC_DESIGN_DATE_AND_TIME_ASSIGNMENT ( #202, #50, ( #219 ) ) ;
#17 = DIRECTION ( 'NONE',  ( 3.491481338843133355E-15, -1.224646799147353207E-16, 1.000000000000000000 ) ) ;
#18 = ORGANIZATION ( 'UNSPECIFIED', 'UNSPECIFIED', '' ) ;
#19 = CALENDAR_DATE ( 2021, 16, 11 ) ;
#20 = LOCAL_TIME ( 16, 45, 7.000000000000000000, #143 ) ;
#21 = ADVANCED_FACE ( 'NONE', ( #209, #117 ), #178, .T. ) ;
#22 = AXIS2_PLACEMENT_3D ( 'NONE', #82, #217, #106 ) ;
#23 = ORIENTED_EDGE ( 'NONE', *, *, #89, .F. ) ;
#24 = CC_DESIGN_PERSON_AND_ORGANIZATION_ASSIGNMENT ( #95, #51, ( #160 ) ) ;
#25 = EDGE_LOOP ( 'NONE', ( #91 ) ) ;
#26 = EDGE_LOOP ( 'NONE', ( #23 ) ) ;
#27 = CYLINDRICAL_SURFACE ( 'NONE', #186, 0.6999999999999996225 ) ;
#28 = CC_DESIGN_PERSON_AND_ORGANIZATION_ASSIGNMENT ( #81, #145, ( #139 ) ) ;
#29 = CARTESIAN_POINT ( 'NONE',  ( 1.326762908760390170E-13, -4.653657836759941152E-15, 37.99999999999999289 ) ) ;
#30 = COORDINATED_UNIVERSAL_TIME_OFFSET ( 1, 0, .AHEAD. ) ;
#31 = DIRECTION ( 'NONE',  ( 3.491481338843133355E-15, -1.227517819005651059E-16, 1.000000000000000000 ) ) ;
#32 = DIRECTION ( 'NONE',  ( -4.275831445896958607E-31, -1.000000000000000000, -1.224646799147353207E-16 ) ) ;
#33 = COORDINATED_UNIVERSAL_TIME_OFFSET ( 1, 0, .AHEAD. ) ;
#34 = CARTESIAN_POINT ( 'NONE',  ( -6.413731847436034514E-31, 0.0000000000000000000, -1.836965810494968570E-16 ) ) ;
#35 = AXIS2_PLACEMENT_3D ( 'NONE', #125, #31, #122 ) ;
#36 = AXIS2_PLACEMENT_3D ( 'NONE', #199, #8, #183 ) ;
#37 = ORIENTED_EDGE ( 'NONE', *, *, #89, .T. ) ;
#38 = CIRCLE ( 'NONE', #36, 1.499999999999990008 ) ;
#39 = ADVANCED_FACE ( 'NONE', ( #75, #210 ), #212, .T. ) ;
#40 = ORIENTED_EDGE ( 'NONE', *, *, #188, .T. ) ;
#41 = CIRCLE ( 'NONE', #211, 1.499999999999992006 ) ;
#42 = VERTEX_POINT ( 'NONE', #167 ) ;
#43 = APPROVAL ( #12, 'UNSPECIFIED' ) ;
#44 = DIRECTION ( 'NONE',  ( -4.275831445896958607E-31, -1.000000000000000000, -1.224646799147353207E-16 ) ) ;
#45 = APPLICATION_PROTOCOL_DEFINITION ( 'international standard', 'config_control_design', 1994, #7 ) ;
#46 = CARTESIAN_POINT ( 'NONE',  ( 1.222018468595096359E-14, -0.7000000000000000666, 3.499999999999999112 ) ) ;
#47 = CIRCLE ( 'NONE', #100, 0.6999999999999996225 ) ;
#48 = APPROVAL_ROLE ( '' ) ;
#49 = DIRECTION ( 'NONE',  ( 3.491481338843133355E-15, -1.224646799147353207E-16, 1.000000000000000000 ) ) ;
#50 = DATE_TIME_ROLE ( 'classification_date' ) ;
#51 = PERSON_AND_ORGANIZATION_ROLE ( 'design_owner' ) ;
#52 = PERSON ( 'UNSPECIFIED', 'UNSPECIFIED', 'UNSPECIFIED', ('UNSPECIFIED'), ('UNSPECIFIED'), ('UNSPECIFIED') ) ;
#53 = MANIFOLD_SOLID_BREP ( 'Corps-Déplacer/Copier1[2]', #102 ) ;
#54 = ADVANCED_FACE ( 'NONE', ( #176 ), #142, .F. ) ;
#55 = ORIENTED_EDGE ( 'NONE', *, *, #99, .T. ) ;
#56 = CARTESIAN_POINT ( 'NONE',  ( 0.0000000000000000000, 0.0000000000000000000, 0.0000000000000000000 ) ) ;
#57 = ADVANCED_FACE ( 'NONE', ( #67 ), #215, .F. ) ;
#58 = EDGE_LOOP ( 'NONE', ( #119 ) ) ;
#59 = DIRECTION ( 'NONE',  ( 0.0000000000000000000, 0.0000000000000000000, 1.000000000000000000 ) ) ;
#60 = FACE_OUTER_BOUND ( 'NONE', #26, .T. ) ;
#61 = CLOSED_SHELL ( 'NONE', ( #39, #21, #66, #129, #54 ) ) ;
#62 = DIRECTION ( 'NONE',  ( 0.0000000000000000000, -1.000000000000000000, 0.0000000000000000000 ) ) ;
#63 = CALENDAR_DATE ( 2021, 16, 11 ) ;
#64 = DIRECTION ( 'NONE',  ( 0.0000000000000000000, -1.000000000000000000, 0.0000000000000000000 ) ) ;
#65 = SECURITY_CLASSIFICATION_LEVEL ( 'unclassified' ) ;
#66 = ADVANCED_FACE ( 'NONE', ( #78 ), #162, .F. ) ;
#67 = FACE_OUTER_BOUND ( 'NONE', #5, .T. ) ;
#68 = PERSON_AND_ORGANIZATION_ROLE ( 'classification_officer' ) ;
#69 = LOCAL_TIME ( 16, 45, 7.000000000000000000, #30 ) ;
#70 = DIRECTION ( 'NONE',  ( 4.275831445896958607E-31, 1.000000000000000000, 1.224646799147353207E-16 ) ) ;
#71 = CC_DESIGN_SECURITY_CLASSIFICATION ( #219, ( #139 ) ) ;
#72 = APPROVAL_PERSON_ORGANIZATION ( #107, #206, #216 ) ;
#73 = EDGE_LOOP ( 'NONE', ( #55 ) ) ;
#74 = AXIS2_PLACEMENT_3D ( 'NONE', #187, #190, #191 ) ;
#75 = FACE_OUTER_BOUND ( 'NONE', #141, .T. ) ;
#76 = PRODUCT_RELATED_PRODUCT_CATEGORY ( 'detail', '', ( #160 ) ) ;
#77 = ADVANCED_BREP_SHAPE_REPRESENTATION ( '966134', ( #120, #53, #163 ), #96 ) ;
#78 = FACE_OUTER_BOUND ( 'NONE', #207, .T. ) ;
#79 = APPROVAL_DATE_TIME ( #180, #43 ) ;
#80 = CARTESIAN_POINT ( 'NONE',  ( 1.222018468595096359E-14, -4.296312366519777473E-16, 3.499999999999999112 ) ) ;
#81 = PERSON_AND_ORGANIZATION ( #52, #18 ) ;
#82 = CARTESIAN_POINT ( 'NONE',  ( 1.222018468595096359E-14, 0.0000000000000000000, 3.499999999999999112 ) ) ;
#83 = CALENDAR_DATE ( 2021, 16, 11 ) ;
#84 = PLANE ( 'NONE',  #113 ) ;
#85 = PERSON_AND_ORGANIZATION ( #52, #18 ) ;
#86 = CIRCLE ( 'NONE', #104, 0.6999999999999996225 ) ;
#87 = CARTESIAN_POINT ( 'NONE',  ( 0.0000000000000000000, 0.0000000000000000000, 0.0000000000000000000 ) ) ;
#88 = PERSON_AND_ORGANIZATION ( #52, #18 ) ;
#89 = EDGE_CURVE ( 'NONE', #121, #121, #86, .T. ) ;
#90 = AXIS2_PLACEMENT_3D ( 'NONE', #13, #148, #44 ) ;
#91 = ORIENTED_EDGE ( 'NONE', *, *, #156, .F. ) ;
#92 = EDGE_LOOP ( 'NONE', ( #40 ) ) ;
#93 = DIRECTION ( 'NONE',  ( -3.491481338843133355E-15, 1.224646799147353207E-16, -1.000000000000000000 ) ) ;
#94 = DIRECTION ( 'NONE',  ( 0.0000000000000000000, 1.000000000000000000, 0.0000000000000000000 ) ) ;
#95 = PERSON_AND_ORGANIZATION ( #52, #18 ) ;
#96 =( GEOMETRIC_REPRESENTATION_CONTEXT ( 3 ) GLOBAL_UNCERTAINTY_ASSIGNED_CONTEXT ( ( #153 ) ) GLOBAL_UNIT_ASSIGNED_CONTEXT ( ( #103, #6, #175 ) ) REPRESENTATION_CONTEXT ( 'NONE', 'WORKASPACE' ) );
#97 = DIRECTION ( 'NONE',  ( -4.285855558155652404E-31, -1.000000000000000000, -1.227517819005651305E-16 ) ) ;
#98 = CARTESIAN_POINT ( 'NONE',  ( 1.316288464743860707E-13, 1.499999999999987566, 37.69999999999998153 ) ) ;
#99 = EDGE_CURVE ( 'NONE', #165, #165, #189, .T. ) ;
#100 = AXIS2_PLACEMENT_3D ( 'NONE', #80, #144, #64 ) ;
#101 = ORIENTED_EDGE ( 'NONE', *, *, #133, .T. ) ;
#102 = CLOSED_SHELL ( 'NONE', ( #171, #185, #57 ) ) ;
#103 =( LENGTH_UNIT ( ) NAMED_UNIT ( * ) SI_UNIT ( .MILLI., .METRE. ) );
#104 = AXIS2_PLACEMENT_3D ( 'NONE', #105, #201, #62 ) ;
#105 = CARTESIAN_POINT ( 'NONE',  ( 1.222018468595096359E-14, -4.296312366519777473E-16, 3.499999999999999112 ) ) ;
#106 = DIRECTION ( 'NONE',  ( -4.365362427626490434E-31, -1.000000000000000000, -1.227517819005651059E-16 ) ) ;
#107 = PERSON_AND_ORGANIZATION ( #52, #18 ) ;
#108 = DIRECTION ( 'NONE',  ( -4.275831445896958607E-31, -1.000000000000000000, -1.224646799147353207E-16 ) ) ;
#109 = TOROIDAL_SURFACE ( 'NONE', #22, 8.699999999999999289, 8.000000000000000000 ) ;
#110 = FACE_OUTER_BOUND ( 'NONE', #193, .T. ) ;
#111 = CARTESIAN_POINT ( 'NONE',  ( 1.222018468595096674E-14, 1.124819836996383627E-32, 3.500000000000000000 ) ) ;
#112 = APPROVAL_DATE_TIME ( #213, #206 ) ;
#113 = AXIS2_PLACEMENT_3D ( 'NONE', #150, #17, #32 ) ;
#114 = CARTESIAN_POINT ( 'NONE',  ( 1.222018468595096359E-14, -0.7000000000000000666, 3.499999999999999112 ) ) ;
#115 = DESIGN_CONTEXT ( 'detailed design', #7, 'design' ) ;
#116 = CC_DESIGN_DATE_AND_TIME_ASSIGNMENT ( #149, #151, ( #123 ) ) ;
#117 = FACE_BOUND ( 'NONE', #208, .T. ) ;
#118 = ORIENTED_EDGE ( 'NONE', *, *, #133, .F. ) ;
#119 = ORIENTED_EDGE ( 'NONE', *, *, #188, .F. ) ;
#120 = MANIFOLD_SOLID_BREP ( 'Corps-Déplacer/Copier1[1]', #61 ) ;
#121 = VERTEX_POINT ( 'NONE', #46 ) ;
#122 = DIRECTION ( 'NONE',  ( -4.285855558155654155E-31, -1.000000000000000000, -1.227517819005651305E-16 ) ) ;
#123 = PRODUCT_DEFINITION ( 'UNKNOWN', '', #139, #115 ) ;
#124 = CALENDAR_DATE ( 2021, 16, 11 ) ;
#125 = CARTESIAN_POINT ( 'NONE',  ( -3.000098890708954493E-31, -1.200148268103259768E-32, -8.592624733039549275E-17 ) ) ;
#126 = COORDINATED_UNIVERSAL_TIME_OFFSET ( 1, 0, .AHEAD. ) ;
#127 = DIRECTION ( 'NONE',  ( 0.0000000000000000000, 1.000000000000000000, 0.0000000000000000000 ) ) ;
#128 = LOCAL_TIME ( 16, 45, 7.000000000000000000, #222 ) ;
#129 = ADVANCED_FACE ( 'NONE', ( #130, #196 ), #109, .F. ) ;
#130 = FACE_OUTER_BOUND ( 'NONE', #92, .T. ) ;
#131 = PRODUCT_DEFINITION_SHAPE ( 'NONE', 'NONE',  #123 ) ;
#132 = CALENDAR_DATE ( 2021, 16, 11 ) ;
#133 = EDGE_CURVE ( 'NONE', #42, #42, #10, .T. ) ;
#134 = APPLICATION_PROTOCOL_DEFINITION ( 'international standard', 'config_control_design', 1994, #214 ) ;
#135 = APPROVAL ( #220, 'UNSPECIFIED' ) ;
#136 = APPROVAL_PERSON_ORGANIZATION ( #177, #43, #48 ) ;
#137 = ORIENTED_EDGE ( 'NONE', *, *, #138, .F. ) ;
#138 = EDGE_CURVE ( 'NONE', #15, #15, #41, .T. ) ;
#139 = PRODUCT_DEFINITION_FORMATION_WITH_SPECIFIED_SOURCE ( 'ANY', '', #160, .NOT_KNOWN. ) ;
#140 = ORIENTED_EDGE ( 'NONE', *, *, #99, .F. ) ;
#141 = EDGE_LOOP ( 'NONE', ( #157 ) ) ;
#142 = PLANE ( 'NONE',  #184 ) ;
#143 = COORDINATED_UNIVERSAL_TIME_OFFSET ( 1, 0, .AHEAD. ) ;
#144 = DIRECTION ( 'NONE',  ( 3.491481338843133355E-15, -1.227517819005651059E-16, 1.000000000000000000 ) ) ;
#145 = PERSON_AND_ORGANIZATION_ROLE ( 'creator' ) ;
#146 = CARTESIAN_POINT ( 'NONE',  ( 1.326762908760390170E-13, 8.998558695971017012E-33, 37.99999999999999289 ) ) ;
#147 = SHAPE_DEFINITION_REPRESENTATION ( #131, #77 ) ;
#148 = DIRECTION ( 'NONE',  ( 3.491481338843133355E-15, -1.224646799147353207E-16, 1.000000000000000000 ) ) ;
#149 = DATE_AND_TIME ( #63, #4 ) ;
#150 = CARTESIAN_POINT ( 'NONE',  ( 1.222018468595096674E-14, 1.124819836996383627E-32, 3.500000000000000000 ) ) ;
#151 = DATE_TIME_ROLE ( 'creation_date' ) ;
#152 = VERTEX_POINT ( 'NONE', #114 ) ;
#153 = UNCERTAINTY_MEASURE_WITH_UNIT (LENGTH_MEASURE( 1.000000000000000082E-05 ), #103, 'distance_accuracy_value', 'NONE');
#154 = AXIS2_PLACEMENT_3D ( 'NONE', #29, #93, #94 ) ;
#155 = CC_DESIGN_PERSON_AND_ORGANIZATION_ASSIGNMENT ( #85, #204, ( #139 ) ) ;
#156 = EDGE_CURVE ( 'NONE', #195, #195, #38, .T. ) ;
#157 = ORIENTED_EDGE ( 'NONE', *, *, #138, .T. ) ;
#158 = CC_DESIGN_APPROVAL ( #206, ( #123 ) ) ;
#159 = EDGE_LOOP ( 'NONE', ( #137 ) ) ;
#160 = PRODUCT ( '966134', '966134', '', ( #205 ) ) ;
#161 = DIRECTION ( 'NONE',  ( -3.491481338843133355E-15, 1.224646799147353207E-16, -1.000000000000000000 ) ) ;
#162 = PLANE ( 'NONE',  #170 ) ;
#163 = AXIS2_PLACEMENT_3D ( 'NONE', #56, #59, #1 ) ;
#164 = PERSON_AND_ORGANIZATION_ROLE ( 'creator' ) ;
#165 = VERTEX_POINT ( 'NONE', #181 ) ;
#166 = DATE_AND_TIME ( #83, #128 ) ;
#167 = CARTESIAN_POINT ( 'NONE',  ( 1.326762908760390170E-13, 1.199999999999987521, 37.99999999999999289 ) ) ;
#168 = PERSON_AND_ORGANIZATION ( #52, #18 ) ;
#169 = FACE_OUTER_BOUND ( 'NONE', #73, .T. ) ;
#170 = AXIS2_PLACEMENT_3D ( 'NONE', #146, #197, #70 ) ;
#171 = ADVANCED_FACE ( 'NONE', ( #110 ), #84, .T. ) ;
#172 = LOCAL_TIME ( 16, 45, 7.000000000000000000, #126 ) ;
#173 = AXIS2_PLACEMENT_3D ( 'NONE', #87, #161, #218 ) ;
#174 = DIRECTION ( 'NONE',  ( -3.491481338843133355E-15, 1.224646799147353207E-16, -1.000000000000000000 ) ) ;
#175 =( NAMED_UNIT ( * ) SI_UNIT ( $, .STERADIAN. ) SOLID_ANGLE_UNIT ( ) );
#176 = FACE_OUTER_BOUND ( 'NONE', #58, .T. ) ;
#177 = PERSON_AND_ORGANIZATION ( #52, #18 ) ;
#178 = CONICAL_SURFACE ( 'NONE', #74, 1.199999999999992184, 0.7853981633974338461 ) ;
#179 = CARTESIAN_POINT ( 'NONE',  ( 1.316288464743860707E-13, -4.616918432785519503E-15, 37.69999999999998153 ) ) ;
#180 = DATE_AND_TIME ( #19, #69 ) ;
#181 = CARTESIAN_POINT ( 'NONE',  ( -6.000197781417910738E-31, -0.6999999999999996225, -1.718524946607910348E-16 ) ) ;
#182 = PERSON_AND_ORGANIZATION ( #52, #18 ) ;
#183 = DIRECTION ( 'NONE',  ( 0.0000000000000000000, 1.000000000000000000, 0.0000000000000000000 ) ) ;
#184 = AXIS2_PLACEMENT_3D ( 'NONE', #111, #49, #108 ) ;
#185 = ADVANCED_FACE ( 'NONE', ( #169, #60 ), #27, .T. ) ;
#186 = AXIS2_PLACEMENT_3D ( 'NONE', #34, #11, #97 ) ;
#187 = CARTESIAN_POINT ( 'NONE',  ( 1.326762908760390170E-13, -4.653657836759941152E-15, 37.99999999999999289 ) ) ;
#188 = EDGE_CURVE ( 'NONE', #152, #152, #47, .T. ) ;
#189 = CIRCLE ( 'NONE', #35, 0.6999999999999996225 ) ;
#190 = DIRECTION ( 'NONE',  ( -3.491481338843133355E-15, 1.224646799147353207E-16, -1.000000000000000000 ) ) ;
#191 = DIRECTION ( 'NONE',  ( 0.0000000000000000000, 1.000000000000000000, 0.0000000000000000000 ) ) ;
#192 = CC_DESIGN_PERSON_AND_ORGANIZATION_ASSIGNMENT ( #168, #164, ( #123 ) ) ;
#193 = EDGE_LOOP ( 'NONE', ( #37 ) ) ;
#194 = CC_DESIGN_APPROVAL ( #135, ( #219 ) ) ;
#195 = VERTEX_POINT ( 'NONE', #221 ) ;
#196 = FACE_OUTER_BOUND ( 'NONE', #2, .T. ) ;
#197 = DIRECTION ( 'NONE',  ( -3.491481338843133355E-15, 1.224646799147353207E-16, -1.000000000000000000 ) ) ;
#198 = APPROVAL_ROLE ( '' ) ;
#199 = CARTESIAN_POINT ( 'NONE',  ( 2.439539614137114544E-14, -4.280500899552843143E-16, 6.987119154832518220 ) ) ;
#200 = CC_DESIGN_APPROVAL ( #43, ( #139 ) ) ;
#201 = DIRECTION ( 'NONE',  ( 3.491481338843133355E-15, -1.227517819005651059E-16, 1.000000000000000000 ) ) ;
#202 = DATE_AND_TIME ( #124, #172 ) ;
#203 = CC_DESIGN_PERSON_AND_ORGANIZATION_ASSIGNMENT ( #88, #68, ( #219 ) ) ;
#204 = PERSON_AND_ORGANIZATION_ROLE ( 'design_supplier' ) ;
#205 = MECHANICAL_CONTEXT ( 'NONE', #214, 'mechanical' ) ;
#206 = APPROVAL ( #9, 'UNSPECIFIED' ) ;
#207 = EDGE_LOOP ( 'NONE', ( #118 ) ) ;
#208 = EDGE_LOOP ( 'NONE', ( #101 ) ) ;
#209 = FACE_OUTER_BOUND ( 'NONE', #159, .T. ) ;
#210 = FACE_OUTER_BOUND ( 'NONE', #25, .T. ) ;
#211 = AXIS2_PLACEMENT_3D ( 'NONE', #179, #174, #127 ) ;
#212 = CYLINDRICAL_SURFACE ( 'NONE', #173, 1.499999999999990008 ) ;
#213 = DATE_AND_TIME ( #132, #20 ) ;
#214 = APPLICATION_CONTEXT ( 'configuration controlled 3d designs of mechanical parts and assemblies' ) ;
#215 = PLANE ( 'NONE',  #90 ) ;
#216 = APPROVAL_ROLE ( '' ) ;
#217 = DIRECTION ( 'NONE',  ( 3.491481338843133355E-15, -1.227517819005651059E-16, 1.000000000000000000 ) ) ;
#218 = DIRECTION ( 'NONE',  ( 4.275831445896959482E-31, 1.000000000000000000, 1.224646799147353207E-16 ) ) ;
#219 = SECURITY_CLASSIFICATION ( '', '', #65 ) ;
#220 = APPROVAL_STATUS ( 'not_yet_approved' ) ;
#221 = CARTESIAN_POINT ( 'NONE',  ( 2.439539614137114544E-14, 1.499999999999989564, 6.987119154832518220 ) ) ;
#222 = COORDINATED_UNIVERSAL_TIME_OFFSET ( 1, 0, .AHEAD. ) ;
#223 = APPROVAL_PERSON_ORGANIZATION ( #182, #135, #198 ) ;
ENDSEC;
END-ISO-10303-21;
