ISO-10303-21;
HEADER;
FILE_DESCRIPTION (( 'STEP AP203' ),
    '1' );
FILE_NAME ('966133.step',
    '2021-11-16T15:45:06',
    ( '' ),
    ( '' ),
    'SwSTEP 2.0',
    'SolidWorks 2019',
    '' );
FILE_SCHEMA (( 'CONFIG_CONTROL_DESIGN' ));
ENDSEC;

DATA;
#1 = APPROVAL ( #18, 'UNSPECIFIED' ) ;
#2 = PLANE ( 'NONE',  #89 ) ;
#3 = AXIS2_PLACEMENT_3D ( 'NONE', #55, #17, #54 ) ;
#4 = CARTESIAN_POINT ( 'NONE',  ( 1.326762908760390170E-13, -4.653657836759941152E-15, 37.99999999999999289 ) ) ;
#5 = PERSON_AND_ORGANIZATION ( #41, #6 ) ;
#6 = ORGANIZATION ( 'UNSPECIFIED', 'UNSPECIFIED', '' ) ;
#7 = DATE_TIME_ROLE ( 'creation_date' ) ;
#8 = ADVANCED_FACE ( 'NONE', ( #137 ), #30, .F. ) ;
#9 = COORDINATED_UNIVERSAL_TIME_OFFSET ( 1, 0, .AHEAD. ) ;
#10 = CALENDAR_DATE ( 2021, 16, 11 ) ;
#11 = ORIENTED_EDGE ( 'NONE', *, *, #218, .T. ) ;
#12 = EDGE_LOOP ( 'NONE', ( #50 ) ) ;
#13 = DESIGN_CONTEXT ( 'detailed design', #65, 'design' ) ;
#14 = CARTESIAN_POINT ( 'NONE',  ( 1.316288464743860707E-13, -4.616918432785519503E-15, 37.69999999999998153 ) ) ;
#15 = DIRECTION ( 'NONE',  ( 0.0000000000000000000, 1.000000000000000000, 0.0000000000000000000 ) ) ;
#16 = CC_DESIGN_PERSON_AND_ORGANIZATION_ASSIGNMENT ( #182, #101, ( #196 ) ) ;
#17 = DIRECTION ( 'NONE',  ( -3.491481338843133355E-15, 1.224646799147353207E-16, -1.000000000000000000 ) ) ;
#18 = APPROVAL_STATUS ( 'not_yet_approved' ) ;
#19 = DIRECTION ( 'NONE',  ( -3.491481338843133355E-15, 1.224646799147353207E-16, -1.000000000000000000 ) ) ;
#20 = CARTESIAN_POINT ( 'NONE',  ( 0.0000000000000000000, 0.0000000000000000000, 0.0000000000000000000 ) ) ;
#21 = COORDINATED_UNIVERSAL_TIME_OFFSET ( 1, 0, .AHEAD. ) ;
#22 = CARTESIAN_POINT ( 'NONE',  ( -5.571612225602344184E-31, -0.6499999999999995781, -1.595773164707344848E-16 ) ) ;
#23 = DATE_AND_TIME ( #61, #165 ) ;
#24 = PERSON_AND_ORGANIZATION ( #41, #6 ) ;
#25 = EDGE_CURVE ( 'NONE', #35, #35, #152, .T. ) ;
#26 = APPROVAL_STATUS ( 'not_yet_approved' ) ;
#27 = APPROVAL_DATE_TIME ( #45, #60 ) ;
#28 = EDGE_LOOP ( 'NONE', ( #29 ) ) ;
#29 = ORIENTED_EDGE ( 'NONE', *, *, #200, .F. ) ;
#30 = PLANE ( 'NONE',  #43 ) ;
#31 = TOROIDAL_SURFACE ( 'NONE', #93, 8.650000000000002132, 8.000000000000000000 ) ;
#32 = FACE_OUTER_BOUND ( 'NONE', #105, .T. ) ;
#33 = FACE_OUTER_BOUND ( 'NONE', #87, .T. ) ;
#34 = CC_DESIGN_PERSON_AND_ORGANIZATION_ASSIGNMENT ( #24, #198, ( #119 ) ) ;
#35 = VERTEX_POINT ( 'NONE', #176 ) ;
#36 = DIRECTION ( 'NONE',  ( -4.285855558155653280E-31, -1.000000000000000000, -1.227517819005651305E-16 ) ) ;
#37 = SHAPE_DEFINITION_REPRESENTATION ( #216, #136 ) ;
#38 = DIRECTION ( 'NONE',  ( 0.0000000000000000000, -1.000000000000000000, 0.0000000000000000000 ) ) ;
#39 = CC_DESIGN_APPROVAL ( #81, ( #119 ) ) ;
#40 = VERTEX_POINT ( 'NONE', #197 ) ;
#41 = PERSON ( 'UNSPECIFIED', 'UNSPECIFIED', 'UNSPECIFIED', ('UNSPECIFIED'), ('UNSPECIFIED'), ('UNSPECIFIED') ) ;
#42 = ADVANCED_FACE ( 'NONE', ( #173 ), #204, .F. ) ;
#43 = AXIS2_PLACEMENT_3D ( 'NONE', #108, #168, #90 ) ;
#44 = CARTESIAN_POINT ( 'NONE',  ( 2.387657674276899579E-14, 1.499999999999989564, 6.838523373199598687 ) ) ;
#45 = DATE_AND_TIME ( #164, #68 ) ;
#46 = ORIENTED_EDGE ( 'NONE', *, *, #25, .T. ) ;
#47 = LOCAL_TIME ( 16, 45, 6.000000000000000000, #207 ) ;
#48 = ORIENTED_EDGE ( 'NONE', *, *, #218, .F. ) ;
#49 = APPLICATION_CONTEXT ( 'configuration controlled 3d designs of mechanical parts and assemblies' ) ;
#50 = ORIENTED_EDGE ( 'NONE', *, *, #157, .T. ) ;
#51 = ADVANCED_FACE ( 'NONE', ( #156, #111 ), #74, .T. ) ;
#52 = DIRECTION ( 'NONE',  ( 0.0000000000000000000, -1.000000000000000000, 0.0000000000000000000 ) ) ;
#53 = DIRECTION ( 'NONE',  ( 4.275831445896959482E-31, 1.000000000000000000, 1.224646799147353207E-16 ) ) ;
#54 = DIRECTION ( 'NONE',  ( 4.275831445896958607E-31, 1.000000000000000000, 1.224646799147353207E-16 ) ) ;
#55 = CARTESIAN_POINT ( 'NONE',  ( 1.326762908760390170E-13, 8.998558695971017012E-33, 37.99999999999999289 ) ) ;
#56 = CYLINDRICAL_SURFACE ( 'NONE', #134, 0.6499999999999998002 ) ;
#57 = APPROVAL_ROLE ( '' ) ;
#58 = CLOSED_SHELL ( 'NONE', ( #88, #51, #42, #169, #8 ) ) ;
#59 = APPROVAL_STATUS ( 'not_yet_approved' ) ;
#60 = APPROVAL ( #26, 'UNSPECIFIED' ) ;
#61 = CALENDAR_DATE ( 2021, 16, 11 ) ;
#62 = PERSON_AND_ORGANIZATION ( #41, #6 ) ;
#63 = CIRCLE ( 'NONE', #85, 0.6500000000000000222 ) ;
#64 = EDGE_LOOP ( 'NONE', ( #120 ) ) ;
#65 = APPLICATION_CONTEXT ( 'configuration controlled 3d designs of mechanical parts and assemblies' ) ;
#66 = EDGE_LOOP ( 'NONE', ( #217 ) ) ;
#67 = ORIENTED_EDGE ( 'NONE', *, *, #200, .T. ) ;
#68 = LOCAL_TIME ( 16, 45, 6.000000000000000000, #9 ) ;
#69 = PLANE ( 'NONE',  #212 ) ;
#70 = CC_DESIGN_APPROVAL ( #60, ( #196 ) ) ;
#71 = DIRECTION ( 'NONE',  ( 0.0000000000000000000, 1.000000000000000000, 0.0000000000000000000 ) ) ;
#72 = DIRECTION ( 'NONE',  ( -4.365601186994270652E-31, -1.000000000000000000, -1.227517819005651059E-16 ) ) ;
#73 = DIRECTION ( 'NONE',  ( -4.275831445896958607E-31, -1.000000000000000000, -1.224646799147353207E-16 ) ) ;
#74 = CONICAL_SURFACE ( 'NONE', #167, 1.199999999999992184, 0.7853981633974338461 ) ;
#75 = APPROVAL_PERSON_ORGANIZATION ( #149, #60, #100 ) ;
#76 = CARTESIAN_POINT ( 'NONE',  ( -2.137917073001454058E-30, 7.498803648657679327E-32, -6.123237862442165323E-16 ) ) ;
#77 = PERSON_AND_ORGANIZATION_ROLE ( 'classification_officer' ) ;
#78 =( NAMED_UNIT ( * ) PLANE_ANGLE_UNIT ( ) SI_UNIT ( $, .RADIAN. ) );
#79 = SECURITY_CLASSIFICATION_LEVEL ( 'unclassified' ) ;
#80 = PERSON_AND_ORGANIZATION ( #41, #6 ) ;
#81 = APPROVAL ( #59, 'UNSPECIFIED' ) ;
#82 = APPLICATION_PROTOCOL_DEFINITION ( 'international standard', 'config_control_design', 1994, #49 ) ;
#83 = DIRECTION ( 'NONE',  ( 1.000000000000000000, 0.0000000000000000000, 0.0000000000000000000 ) ) ;
#84 = CC_DESIGN_SECURITY_CLASSIFICATION ( #104, ( #196 ) ) ;
#85 = AXIS2_PLACEMENT_3D ( 'NONE', #202, #144, #52 ) ;
#86 = EDGE_LOOP ( 'NONE', ( #219 ) ) ;
#87 = EDGE_LOOP ( 'NONE', ( #48 ) ) ;
#88 = ADVANCED_FACE ( 'NONE', ( #141, #158 ), #127, .T. ) ;
#89 = AXIS2_PLACEMENT_3D ( 'NONE', #76, #110, #123 ) ;
#90 = DIRECTION ( 'NONE',  ( -4.275831445896958607E-31, -1.000000000000000000, -1.224646799147353207E-16 ) ) ;
#91 = DIRECTION ( 'NONE',  ( 0.0000000000000000000, 1.000000000000000000, 0.0000000000000000000 ) ) ;
#92 = DIRECTION ( 'NONE',  ( 3.491481338843133355E-15, -1.227517819005651059E-16, 1.000000000000000000 ) ) ;
#93 = AXIS2_PLACEMENT_3D ( 'NONE', #203, #223, #72 ) ;
#94 = CARTESIAN_POINT ( 'NONE',  ( 1.326762908760390170E-13, -4.653657836759941152E-15, 37.99999999999999289 ) ) ;
#95 = CARTESIAN_POINT ( 'NONE',  ( 2.387657674276899579E-14, -4.404976384520775481E-16, 6.838523373199598687 ) ) ;
#96 = ADVANCED_FACE ( 'NONE', ( #208, #33 ), #56, .T. ) ;
#97 = VERTEX_POINT ( 'NONE', #113 ) ;
#98 = AXIS2_PLACEMENT_3D ( 'NONE', #14, #19, #91 ) ;
#99 = CALENDAR_DATE ( 2021, 16, 11 ) ;
#100 = APPROVAL_ROLE ( '' ) ;
#101 = PERSON_AND_ORGANIZATION_ROLE ( 'creator' ) ;
#102 = APPROVAL_PERSON_ORGANIZATION ( #209, #1, #57 ) ;
#103 = AXIS2_PLACEMENT_3D ( 'NONE', #4, #172, #122 ) ;
#104 = SECURITY_CLASSIFICATION ( '', '', #79 ) ;
#105 = EDGE_LOOP ( 'NONE', ( #11 ) ) ;
#106 = CC_DESIGN_DATE_AND_TIME_ASSIGNMENT ( #163, #7, ( #119 ) ) ;
#107 = PRODUCT ( '966133', '966133', '', ( #195 ) ) ;
#108 = CARTESIAN_POINT ( 'NONE',  ( 1.134731435124018340E-14, 1.124819836996383627E-32, 3.250000000000000000 ) ) ;
#109 = AXIS2_PLACEMENT_3D ( 'NONE', #187, #92, #38 ) ;
#110 = DIRECTION ( 'NONE',  ( 3.491481338843133355E-15, -1.224646799147353207E-16, 1.000000000000000000 ) ) ;
#111 = FACE_BOUND ( 'NONE', #64, .T. ) ;
#112 = AXIS2_PLACEMENT_3D ( 'NONE', #20, #128, #83 ) ;
#113 = CARTESIAN_POINT ( 'NONE',  ( 1.326762908760390170E-13, 1.199999999999987521, 37.99999999999999289 ) ) ;
#114 = DIRECTION ( 'NONE',  ( 3.491481338843133355E-15, -1.224646799147353207E-16, 1.000000000000000000 ) ) ;
#115 = COORDINATED_UNIVERSAL_TIME_OFFSET ( 1, 0, .AHEAD. ) ;
#116 = PERSON_AND_ORGANIZATION ( #41, #6 ) ;
#117 = EDGE_LOOP ( 'NONE', ( #46 ) ) ;
#118 = LOCAL_TIME ( 16, 45, 6.000000000000000000, #21 ) ;
#119 = PRODUCT_DEFINITION ( 'UNKNOWN', '', #196, #13 ) ;
#120 = ORIENTED_EDGE ( 'NONE', *, *, #133, .T. ) ;
#121 = CARTESIAN_POINT ( 'NONE',  ( 0.0000000000000000000, 0.0000000000000000000, 0.0000000000000000000 ) ) ;
#122 = DIRECTION ( 'NONE',  ( 0.0000000000000000000, 1.000000000000000000, 0.0000000000000000000 ) ) ;
#123 = DIRECTION ( 'NONE',  ( -4.275831445896958607E-31, -1.000000000000000000, -1.224646799147353207E-16 ) ) ;
#124 = CC_DESIGN_DATE_AND_TIME_ASSIGNMENT ( #175, #145, ( #104 ) ) ;
#125 = VERTEX_POINT ( 'NONE', #44 ) ;
#126 = APPROVAL_DATE_TIME ( #178, #1 ) ;
#127 = CYLINDRICAL_SURFACE ( 'NONE', #155, 1.499999999999990008 ) ;
#128 = DIRECTION ( 'NONE',  ( 0.0000000000000000000, 0.0000000000000000000, 1.000000000000000000 ) ) ;
#129 = CIRCLE ( 'NONE', #98, 1.499999999999992006 ) ;
#130 = COORDINATED_UNIVERSAL_TIME_OFFSET ( 1, 0, .AHEAD. ) ;
#131 = APPROVAL_DATE_TIME ( #23, #81 ) ;
#132 =( LENGTH_UNIT ( ) NAMED_UNIT ( * ) SI_UNIT ( .MILLI., .METRE. ) );
#133 = EDGE_CURVE ( 'NONE', #97, #97, #177, .T. ) ;
#134 = AXIS2_PLACEMENT_3D ( 'NONE', #221, #192, #36 ) ;
#135 = APPROVAL_PERSON_ORGANIZATION ( #62, #81, #213 ) ;
#136 = ADVANCED_BREP_SHAPE_REPRESENTATION ( '966133', ( #210, #214, #112 ), #146 ) ;
#137 = FACE_OUTER_BOUND ( 'NONE', #220, .T. ) ;
#138 = UNCERTAINTY_MEASURE_WITH_UNIT (LENGTH_MEASURE( 1.000000000000000082E-05 ), #132, 'distance_accuracy_value', 'NONE');
#139 = FACE_OUTER_BOUND ( 'NONE', #12, .T. ) ;
#140 = EDGE_CURVE ( 'NONE', #160, #160, #129, .T. ) ;
#141 = FACE_OUTER_BOUND ( 'NONE', #66, .T. ) ;
#143 = CLOSED_SHELL ( 'NONE', ( #206, #96, #191 ) ) ;
#142 = DIRECTION ( 'NONE',  ( 3.491481338843133355E-15, -1.227517819005651059E-16, 1.000000000000000000 ) ) ;
#144 = DIRECTION ( 'NONE',  ( 3.491481338843133355E-15, -1.227517819005651059E-16, 1.000000000000000000 ) ) ;
#145 = DATE_TIME_ROLE ( 'classification_date' ) ;
#146 =( GEOMETRIC_REPRESENTATION_CONTEXT ( 3 ) GLOBAL_UNCERTAINTY_ASSIGNED_CONTEXT ( ( #138 ) ) GLOBAL_UNIT_ASSIGNED_CONTEXT ( ( #132, #78, #179 ) ) REPRESENTATION_CONTEXT ( 'NONE', 'WORKASPACE' ) );
#147 = PERSON_AND_ORGANIZATION_ROLE ( 'design_owner' ) ;
#148 = CC_DESIGN_PERSON_AND_ORGANIZATION_ASSIGNMENT ( #116, #166, ( #196 ) ) ;
#149 = PERSON_AND_ORGANIZATION ( #41, #6 ) ;
#150 = ORIENTED_EDGE ( 'NONE', *, *, #157, .F. ) ;
#151 = ORIENTED_EDGE ( 'NONE', *, *, #133, .F. ) ;
#152 = CIRCLE ( 'NONE', #109, 0.6500000000000000222 ) ;
#153 = EDGE_LOOP ( 'NONE', ( #150 ) ) ;
#154 = FACE_OUTER_BOUND ( 'NONE', #28, .T. ) ;
#155 = AXIS2_PLACEMENT_3D ( 'NONE', #121, #222, #53 ) ;
#156 = FACE_OUTER_BOUND ( 'NONE', #86, .T. ) ;
#157 = EDGE_CURVE ( 'NONE', #125, #125, #188, .T. ) ;
#158 = FACE_OUTER_BOUND ( 'NONE', #153, .T. ) ;
#159 = DIRECTION ( 'NONE',  ( -3.491481338843133355E-15, 1.227517819005651059E-16, -1.000000000000000000 ) ) ;
#160 = VERTEX_POINT ( 'NONE', #174 ) ;
#161 = VERTEX_POINT ( 'NONE', #22 ) ;
#162 = CC_DESIGN_PERSON_AND_ORGANIZATION_ASSIGNMENT ( #5, #77, ( #104 ) ) ;
#163 = DATE_AND_TIME ( #99, #193 ) ;
#164 = CALENDAR_DATE ( 2021, 16, 11 ) ;
#165 = LOCAL_TIME ( 16, 45, 6.000000000000000000, #130 ) ;
#166 = PERSON_AND_ORGANIZATION_ROLE ( 'design_supplier' ) ;
#167 = AXIS2_PLACEMENT_3D ( 'NONE', #94, #171, #15 ) ;
#168 = DIRECTION ( 'NONE',  ( 3.491481338843133355E-15, -1.224646799147353207E-16, 1.000000000000000000 ) ) ;
#169 = ADVANCED_FACE ( 'NONE', ( #186, #139 ), #31, .F. ) ;
#170 = CC_DESIGN_APPROVAL ( #1, ( #104 ) ) ;
#171 = DIRECTION ( 'NONE',  ( -3.491481338843133355E-15, 1.224646799147353207E-16, -1.000000000000000000 ) ) ;
#172 = DIRECTION ( 'NONE',  ( -3.491481338843133355E-15, 1.224646799147353207E-16, -1.000000000000000000 ) ) ;
#173 = FACE_OUTER_BOUND ( 'NONE', #183, .T. ) ;
#174 = CARTESIAN_POINT ( 'NONE',  ( 1.316288464743860707E-13, 1.499999999999987566, 37.69999999999998153 ) ) ;
#175 = DATE_AND_TIME ( #10, #118 ) ;
#176 = CARTESIAN_POINT ( 'NONE',  ( 1.134731435124017867E-14, -0.6500000000000003553, 3.249999999999998668 ) ) ;
#177 = CIRCLE ( 'NONE', #103, 1.199999999999992184 ) ;
#178 = DATE_AND_TIME ( #194, #47 ) ;
#179 =( NAMED_UNIT ( * ) SI_UNIT ( $, .STERADIAN. ) SOLID_ANGLE_UNIT ( ) );
#180 = CC_DESIGN_PERSON_AND_ORGANIZATION_ASSIGNMENT ( #80, #147, ( #107 ) ) ;
#181 = AXIS2_PLACEMENT_3D ( 'NONE', #95, #159, #71 ) ;
#182 = PERSON_AND_ORGANIZATION ( #41, #6 ) ;
#183 = EDGE_LOOP ( 'NONE', ( #151 ) ) ;
#184 = PRODUCT_RELATED_PRODUCT_CATEGORY ( 'detail', '', ( #107 ) ) ;
#185 = CIRCLE ( 'NONE', #215, 0.6499999999999995781 ) ;
#186 = FACE_OUTER_BOUND ( 'NONE', #117, .T. ) ;
#187 = CARTESIAN_POINT ( 'NONE',  ( 1.134731435124017867E-14, -3.989432911768364338E-16, 3.249999999999998668 ) ) ;
#188 = CIRCLE ( 'NONE', #181, 1.499999999999990008 ) ;
#189 = CARTESIAN_POINT ( 'NONE',  ( -2.785806112801171216E-31, -1.275488267902079408E-32, -7.978865823536721774E-17 ) ) ;
#190 = DIRECTION ( 'NONE',  ( -4.285855558155653280E-31, -1.000000000000000000, -1.227517819005651059E-16 ) ) ;
#191 = ADVANCED_FACE ( 'NONE', ( #154 ), #2, .F. ) ;
#192 = DIRECTION ( 'NONE',  ( 3.491481338843133355E-15, -1.227517819005651059E-16, 1.000000000000000000 ) ) ;
#193 = LOCAL_TIME ( 16, 45, 6.000000000000000000, #115 ) ;
#194 = CALENDAR_DATE ( 2021, 16, 11 ) ;
#195 = MECHANICAL_CONTEXT ( 'NONE', #49, 'mechanical' ) ;
#196 = PRODUCT_DEFINITION_FORMATION_WITH_SPECIFIED_SOURCE ( 'ANY', '', #107, .NOT_KNOWN. ) ;
#197 = CARTESIAN_POINT ( 'NONE',  ( 1.134731435124017867E-14, -0.6500000000000003553, 3.249999999999998668 ) ) ;
#198 = PERSON_AND_ORGANIZATION_ROLE ( 'creator' ) ;
#199 = ORIENTED_EDGE ( 'NONE', *, *, #25, .F. ) ;
#200 = EDGE_CURVE ( 'NONE', #161, #161, #185, .T. ) ;
#201 = EDGE_LOOP ( 'NONE', ( #67 ) ) ;
#202 = CARTESIAN_POINT ( 'NONE',  ( 1.134731435124017867E-14, -3.989432911768364338E-16, 3.249999999999998668 ) ) ;
#203 = CARTESIAN_POINT ( 'NONE',  ( 1.134731435124018025E-14, 0.0000000000000000000, 3.249999999999999112 ) ) ;
#204 = PLANE ( 'NONE',  #3 ) ;
#205 = CARTESIAN_POINT ( 'NONE',  ( 1.134731435124018340E-14, 1.124819836996383627E-32, 3.250000000000000000 ) ) ;
#206 = ADVANCED_FACE ( 'NONE', ( #32 ), #69, .T. ) ;
#207 = COORDINATED_UNIVERSAL_TIME_OFFSET ( 1, 0, .AHEAD. ) ;
#208 = FACE_OUTER_BOUND ( 'NONE', #201, .T. ) ;
#209 = PERSON_AND_ORGANIZATION ( #41, #6 ) ;
#210 = MANIFOLD_SOLID_BREP ( 'Corps-Déplacer/Copier1[1]', #58 ) ;
#212 = AXIS2_PLACEMENT_3D ( 'NONE', #205, #114, #73 ) ;
#211 = APPLICATION_PROTOCOL_DEFINITION ( 'international standard', 'config_control_design', 1994, #65 ) ;
#213 = APPROVAL_ROLE ( '' ) ;
#214 = MANIFOLD_SOLID_BREP ( 'Corps-Déplacer/Copier1[2]', #143 ) ;
#215 = AXIS2_PLACEMENT_3D ( 'NONE', #189, #142, #190 ) ;
#216 = PRODUCT_DEFINITION_SHAPE ( 'NONE', 'NONE',  #119 ) ;
#217 = ORIENTED_EDGE ( 'NONE', *, *, #140, .T. ) ;
#218 = EDGE_CURVE ( 'NONE', #40, #40, #63, .T. ) ;
#219 = ORIENTED_EDGE ( 'NONE', *, *, #140, .F. ) ;
#220 = EDGE_LOOP ( 'NONE', ( #199 ) ) ;
#221 = CARTESIAN_POINT ( 'NONE',  ( -6.413731847436034514E-31, 0.0000000000000000000, -1.836965810494968570E-16 ) ) ;
#222 = DIRECTION ( 'NONE',  ( -3.491481338843133355E-15, 1.224646799147353207E-16, -1.000000000000000000 ) ) ;
#223 = DIRECTION ( 'NONE',  ( 3.491481338843133355E-15, -1.227517819005651059E-16, 1.000000000000000000 ) ) ;
ENDSEC;
END-ISO-10303-21;
