ISO-10303-21;
HEADER;
FILE_DESCRIPTION (( 'STEP AP203' ),
    '1' );
FILE_NAME ('966132.step',
    '2021-11-16T15:45:06',
    ( '' ),
    ( '' ),
    'SwSTEP 2.0',
    'SolidWorks 2019',
    '' );
FILE_SCHEMA (( 'CONFIG_CONTROL_DESIGN' ));
ENDSEC;

DATA;
#1 = APPROVAL_PERSON_ORGANIZATION ( #222, #171, #46 ) ;
#2 = DIRECTION ( 'NONE',  ( 3.491481338843133355E-15, -1.227517819005651059E-16, 1.000000000000000000 ) ) ;
#3 = ADVANCED_FACE ( 'NONE', ( #217 ), #199, .T. ) ;
#4 = VERTEX_POINT ( 'NONE', #185 ) ;
#5 = LOCAL_TIME ( 16, 45, 6.000000000000000000, #66 ) ;
#6 =( LENGTH_UNIT ( ) NAMED_UNIT ( * ) SI_UNIT ( .MILLI., .METRE. ) );
#7 = ORIENTED_EDGE ( 'NONE', *, *, #173, .F. ) ;
#8 = ORIENTED_EDGE ( 'NONE', *, *, #77, .T. ) ;
#9 = CC_DESIGN_PERSON_AND_ORGANIZATION_ASSIGNMENT ( #209, #53, ( #71 ) ) ;
#10 = EDGE_LOOP ( 'NONE', ( #103 ) ) ;
#11 = COORDINATED_UNIVERSAL_TIME_OFFSET ( 1, 0, .AHEAD. ) ;
#12 = ORIENTED_EDGE ( 'NONE', *, *, #57, .T. ) ;
#13 = CARTESIAN_POINT ( 'NONE',  ( 1.326762908760390170E-13, -4.653657836759941152E-15, 37.99999999999999289 ) ) ;
#14 = CC_DESIGN_DATE_AND_TIME_ASSIGNMENT ( #44, #216, ( #43 ) ) ;
#15 = FACE_OUTER_BOUND ( 'NONE', #90, .T. ) ;
#16 = VERTEX_POINT ( 'NONE', #165 ) ;
#17 = CARTESIAN_POINT ( 'NONE',  ( 1.047444401652939691E-14, -3.682553457016952190E-16, 2.999999999999999112 ) ) ;
#18 = EDGE_CURVE ( 'NONE', #16, #16, #208, .T. ) ;
#19 = DIRECTION ( 'NONE',  ( -4.275831445896958607E-31, -1.000000000000000000, -1.224646799147353207E-16 ) ) ;
#20 = UNCERTAINTY_MEASURE_WITH_UNIT (LENGTH_MEASURE( 1.000000000000000082E-05 ), #6, 'distance_accuracy_value', 'NONE');
#21 = APPLICATION_CONTEXT ( 'configuration controlled 3d designs of mechanical parts and assemblies' ) ;
#22 = AXIS2_PLACEMENT_3D ( 'NONE', #163, #33, #188 ) ;
#23 = EDGE_LOOP ( 'NONE', ( #79 ) ) ;
#24 = CC_DESIGN_APPROVAL ( #171, ( #182 ) ) ;
#25 = CC_DESIGN_SECURITY_CLASSIFICATION ( #43, ( #182 ) ) ;
#26 = ORIENTED_EDGE ( 'NONE', *, *, #173, .T. ) ;
#27 = CALENDAR_DATE ( 2021, 16, 11 ) ;
#28 = DIRECTION ( 'NONE',  ( 3.491481338843133355E-15, -1.224646799147353207E-16, 1.000000000000000000 ) ) ;
#29 = PERSON_AND_ORGANIZATION ( #191, #91 ) ;
#30 = DIRECTION ( 'NONE',  ( -3.491481338843133355E-15, 1.224646799147353207E-16, -1.000000000000000000 ) ) ;
#31 = DIRECTION ( 'NONE',  ( 3.491481338843133355E-15, -1.227517819005651059E-16, 1.000000000000000000 ) ) ;
#32 = PERSON_AND_ORGANIZATION_ROLE ( 'creator' ) ;
#33 = DIRECTION ( 'NONE',  ( -3.491481338843133355E-15, 1.224646799147353207E-16, -1.000000000000000000 ) ) ;
#34 = CC_DESIGN_PERSON_AND_ORGANIZATION_ASSIGNMENT ( #120, #142, ( #104 ) ) ;
#35 = APPLICATION_CONTEXT ( 'configuration controlled 3d designs of mechanical parts and assemblies' ) ;
#36 = DIRECTION ( 'NONE',  ( 3.491481338843133355E-15, -1.224646799147353207E-16, 1.000000000000000000 ) ) ;
#37 = DIRECTION ( 'NONE',  ( 3.491481338843133355E-15, -1.227517819005651059E-16, 1.000000000000000000 ) ) ;
#38 = CARTESIAN_POINT ( 'NONE',  ( -5.143026669786782009E-31, -0.5999999999999998668, -1.473021382806780580E-16 ) ) ;
#39 = ADVANCED_FACE ( 'NONE', ( #170, #99 ), #61, .T. ) ;
#40 = AXIS2_PLACEMENT_3D ( 'NONE', #45, #28, #108 ) ;
#41 = CIRCLE ( 'NONE', #65, 1.499999999999992006 ) ;
#42 = EDGE_LOOP ( 'NONE', ( #160 ) ) ;
#43 = SECURITY_CLASSIFICATION ( '', '', #80 ) ;
#44 = DATE_AND_TIME ( #78, #117 ) ;
#45 = CARTESIAN_POINT ( 'NONE',  ( 1.047444401652940007E-14, 1.124819836996383627E-32, 3.000000000000000000 ) ) ;
#46 = APPROVAL_ROLE ( '' ) ;
#47 = CARTESIAN_POINT ( 'NONE',  ( 1.047444401652940007E-14, 1.124819836996383627E-32, 3.000000000000000000 ) ) ;
#48 = CIRCLE ( 'NONE', #162, 0.5999999999999998668 ) ;
#49 = FACE_OUTER_BOUND ( 'NONE', #23, .T. ) ;
#50 = VERTEX_POINT ( 'NONE', #131 ) ;
#51 = CARTESIAN_POINT ( 'NONE',  ( -2.571513334893390566E-31, -1.350828267700898226E-32, -7.365106914033900435E-17 ) ) ;
#52 = CIRCLE ( 'NONE', #115, 0.6000000000000001998 ) ;
#53 = PERSON_AND_ORGANIZATION_ROLE ( 'design_owner' ) ;
#54 = ADVANCED_BREP_SHAPE_REPRESENTATION ( '966132', ( #190, #193, #56 ), #195 ) ;
#55 = EDGE_LOOP ( 'NONE', ( #177 ) ) ;
#56 = AXIS2_PLACEMENT_3D ( 'NONE', #100, #156, #172 ) ;
#57 = EDGE_CURVE ( 'NONE', #111, #111, #60, .T. ) ;
#58 = EDGE_LOOP ( 'NONE', ( #7 ) ) ;
#59 = APPROVAL_STATUS ( 'not_yet_approved' ) ;
#60 = CIRCLE ( 'NONE', #128, 1.499999999999990008 ) ;
#61 = CYLINDRICAL_SURFACE ( 'NONE', #121, 1.499999999999990008 ) ;
#62 = DIRECTION ( 'NONE',  ( -3.491481338843133355E-15, 1.224646799147353207E-16, -1.000000000000000000 ) ) ;
#63 = APPROVAL_STATUS ( 'not_yet_approved' ) ;
#64 = DIRECTION ( 'NONE',  ( 3.491481338843133355E-15, -1.224646799147353207E-16, 1.000000000000000000 ) ) ;
#65 = AXIS2_PLACEMENT_3D ( 'NONE', #219, #112, #109 ) ;
#66 = COORDINATED_UNIVERSAL_TIME_OFFSET ( 1, 0, .AHEAD. ) ;
#67 = FACE_BOUND ( 'NONE', #105, .T. ) ;
#68 = PLANE ( 'NONE',  #189 ) ;
#69 = APPLICATION_PROTOCOL_DEFINITION ( 'international standard', 'config_control_design', 1994, #35 ) ;
#70 = EDGE_CURVE ( 'NONE', #4, #4, #52, .T. ) ;
#71 = PRODUCT ( '966132', '966132', '', ( #136 ) ) ;
#72 = AXIS2_PLACEMENT_3D ( 'NONE', #96, #31, #95 ) ;
#73 = CC_DESIGN_APPROVAL ( #221, ( #104 ) ) ;
#74 = APPLICATION_PROTOCOL_DEFINITION ( 'international standard', 'config_control_design', 1994, #21 ) ;
#75 = APPROVAL_PERSON_ORGANIZATION ( #29, #135, #198 ) ;
#76 = APPROVAL_ROLE ( '' ) ;
#77 = EDGE_CURVE ( 'NONE', #50, #50, #174, .T. ) ;
#78 = CALENDAR_DATE ( 2021, 16, 11 ) ;
#79 = ORIENTED_EDGE ( 'NONE', *, *, #18, .F. ) ;
#80 = SECURITY_CLASSIFICATION_LEVEL ( 'unclassified' ) ;
#81 = DIRECTION ( 'NONE',  ( 0.0000000000000000000, 1.000000000000000000, 0.0000000000000000000 ) ) ;
#82 = CALENDAR_DATE ( 2021, 16, 11 ) ;
#83 = FACE_OUTER_BOUND ( 'NONE', #58, .T. ) ;
#84 = CARTESIAN_POINT ( 'NONE',  ( 2.334565631210067098E-14, 1.499999999999989564, 6.686461718233331908 ) ) ;
#85 = PERSON_AND_ORGANIZATION ( #191, #91 ) ;
#86 = FACE_OUTER_BOUND ( 'NONE', #122, .T. ) ;
#87 = LOCAL_TIME ( 16, 45, 6.000000000000000000, #129 ) ;
#88 = DIRECTION ( 'NONE',  ( 4.275831445896959482E-31, 1.000000000000000000, 1.224646799147353207E-16 ) ) ;
#89 = LOCAL_TIME ( 16, 45, 6.000000000000000000, #107 ) ;
#90 = EDGE_LOOP ( 'NONE', ( #8 ) ) ;
#91 = ORGANIZATION ( 'UNSPECIFIED', 'UNSPECIFIED', '' ) ;
#92 = EDGE_LOOP ( 'NONE', ( #26 ) ) ;
#93 = DATE_AND_TIME ( #27, #89 ) ;
#94 = CARTESIAN_POINT ( 'NONE',  ( 0.0000000000000000000, 0.0000000000000000000, 0.0000000000000000000 ) ) ;
#95 = DIRECTION ( 'NONE',  ( -4.285855558155654155E-31, -1.000000000000000000, -1.227517819005650812E-16 ) ) ;
#96 = CARTESIAN_POINT ( 'NONE',  ( -6.413731847436034514E-31, 0.0000000000000000000, -1.836965810494968570E-16 ) ) ;
#97 = CARTESIAN_POINT ( 'NONE',  ( 1.316288464743860707E-13, 1.499999999999987566, 37.69999999999998153 ) ) ;
#98 = APPROVAL_DATE_TIME ( #93, #135 ) ;
#99 = FACE_OUTER_BOUND ( 'NONE', #10, .T. ) ;
#100 = CARTESIAN_POINT ( 'NONE',  ( 0.0000000000000000000, 0.0000000000000000000, 0.0000000000000000000 ) ) ;
#101 =( NAMED_UNIT ( * ) SI_UNIT ( $, .STERADIAN. ) SOLID_ANGLE_UNIT ( ) );
#102 = AXIS2_PLACEMENT_3D ( 'NONE', #144, #2, #123 ) ;
#103 = ORIENTED_EDGE ( 'NONE', *, *, #57, .F. ) ;
#104 = PRODUCT_DEFINITION ( 'UNKNOWN', '', #182, #134 ) ;
#105 = EDGE_LOOP ( 'NONE', ( #159 ) ) ;
#106 = CONICAL_SURFACE ( 'NONE', #211, 1.199999999999992184, 0.7853981633974338461 ) ;
#107 = COORDINATED_UNIVERSAL_TIME_OFFSET ( 1, 0, .AHEAD. ) ;
#108 = DIRECTION ( 'NONE',  ( -4.275831445896958607E-31, -1.000000000000000000, -1.224646799147353207E-16 ) ) ;
#109 = DIRECTION ( 'NONE',  ( 0.0000000000000000000, 1.000000000000000000, 0.0000000000000000000 ) ) ;
#110 = DIRECTION ( 'NONE',  ( -4.285855558155653280E-31, -1.000000000000000000, -1.227517819005651059E-16 ) ) ;
#111 = VERTEX_POINT ( 'NONE', #84 ) ;
#112 = DIRECTION ( 'NONE',  ( -3.491481338843133355E-15, 1.224646799147353207E-16, -1.000000000000000000 ) ) ;
#113 = PRODUCT_RELATED_PRODUCT_CATEGORY ( 'detail', '', ( #71 ) ) ;
#114 = CARTESIAN_POINT ( 'NONE',  ( -2.137917073001454058E-30, 7.498803648657679327E-32, -6.123237862442165323E-16 ) ) ;
#115 = AXIS2_PLACEMENT_3D ( 'NONE', #223, #202, #204 ) ;
#116 = ADVANCED_FACE ( 'NONE', ( #15, #220 ), #158, .F. ) ;
#117 = LOCAL_TIME ( 16, 45, 6.000000000000000000, #180 ) ;
#118 = ADVANCED_FACE ( 'NONE', ( #201 ), #68, .F. ) ;
#119 = EDGE_LOOP ( 'NONE', ( #12 ) ) ;
#120 = PERSON_AND_ORGANIZATION ( #191, #91 ) ;
#121 = AXIS2_PLACEMENT_3D ( 'NONE', #94, #62, #88 ) ;
#122 = EDGE_LOOP ( 'NONE', ( #215 ) ) ;
#123 = DIRECTION ( 'NONE',  ( -4.365841384671495503E-31, -1.000000000000000000, -1.227517819005651059E-16 ) ) ;
#124 = CARTESIAN_POINT ( 'NONE',  ( 2.334565631210067098E-14, -4.525197448213605267E-16, 6.686461718233331908 ) ) ;
#125 = APPROVAL_STATUS ( 'not_yet_approved' ) ;
#126 = PRODUCT_DEFINITION_SHAPE ( 'NONE', 'NONE',  #104 ) ;
#127 = DIRECTION ( 'NONE',  ( -3.491481338843133355E-15, 1.227517819005651059E-16, -1.000000000000000000 ) ) ;
#128 = AXIS2_PLACEMENT_3D ( 'NONE', #124, #127, #168 ) ;
#129 = COORDINATED_UNIVERSAL_TIME_OFFSET ( 1, 0, .AHEAD. ) ;
#130 = ADVANCED_FACE ( 'NONE', ( #86, #67 ), #106, .T. ) ;
#131 = CARTESIAN_POINT ( 'NONE',  ( 1.047444401652939691E-14, -0.6000000000000005329, 2.999999999999999112 ) ) ;
#132 = SHAPE_DEFINITION_REPRESENTATION ( #126, #54 ) ;
#133 = CARTESIAN_POINT ( 'NONE',  ( 1.326762908760390170E-13, -4.653657836759941152E-15, 37.99999999999999289 ) ) ;
#134 = DESIGN_CONTEXT ( 'detailed design', #35, 'design' ) ;
#135 = APPROVAL ( #59, 'UNSPECIFIED' ) ;
#136 = MECHANICAL_CONTEXT ( 'NONE', #21, 'mechanical' ) ;
#137 = APPROVAL_PERSON_ORGANIZATION ( #146, #221, #76 ) ;
#138 = DIRECTION ( 'NONE',  ( -3.491481338843133355E-15, 1.224646799147353207E-16, -1.000000000000000000 ) ) ;
#139 = AXIS2_PLACEMENT_3D ( 'NONE', #13, #138, #145 ) ;
#140 = EDGE_LOOP ( 'NONE', ( #179 ) ) ;
#141 = APPROVAL_DATE_TIME ( #205, #171 ) ;
#142 = PERSON_AND_ORGANIZATION_ROLE ( 'creator' ) ;
#143 = LOCAL_TIME ( 16, 45, 6.000000000000000000, #11 ) ;
#144 = CARTESIAN_POINT ( 'NONE',  ( 1.047444401652939691E-14, 0.0000000000000000000, 2.999999999999999112 ) ) ;
#145 = DIRECTION ( 'NONE',  ( 0.0000000000000000000, 1.000000000000000000, 0.0000000000000000000 ) ) ;
#146 = PERSON_AND_ORGANIZATION ( #191, #91 ) ;
#147 = DATE_AND_TIME ( #82, #5 ) ;
#148 = PLANE ( 'NONE',  #152 ) ;
#149 = EDGE_CURVE ( 'NONE', #206, #206, #41, .T. ) ;
#150 = PERSON_AND_ORGANIZATION_ROLE ( 'classification_officer' ) ;
#151 = DIRECTION ( 'NONE',  ( 0.0000000000000000000, -1.000000000000000000, 0.0000000000000000000 ) ) ;
#152 = AXIS2_PLACEMENT_3D ( 'NONE', #114, #36, #207 ) ;
#153 = FACE_OUTER_BOUND ( 'NONE', #92, .T. ) ;
#154 = CLOSED_SHELL ( 'NONE', ( #39, #130, #166, #116, #118 ) ) ;
#155 = ADVANCED_FACE ( 'NONE', ( #83 ), #148, .F. ) ;
#156 = DIRECTION ( 'NONE',  ( 0.0000000000000000000, 0.0000000000000000000, 1.000000000000000000 ) ) ;
#157 = ORIENTED_EDGE ( 'NONE', *, *, #70, .F. ) ;
#158 = TOROIDAL_SURFACE ( 'NONE', #102, 8.599999999999999645, 8.000000000000000000 ) ;
#159 = ORIENTED_EDGE ( 'NONE', *, *, #18, .T. ) ;
#160 = ORIENTED_EDGE ( 'NONE', *, *, #70, .T. ) ;
#161 = PERSON_AND_ORGANIZATION ( #191, #91 ) ;
#162 = AXIS2_PLACEMENT_3D ( 'NONE', #51, #37, #110 ) ;
#163 = CARTESIAN_POINT ( 'NONE',  ( 1.326762908760390170E-13, 8.998558695971017012E-33, 37.99999999999999289 ) ) ;
#164 = CALENDAR_DATE ( 2021, 16, 11 ) ;
#165 = CARTESIAN_POINT ( 'NONE',  ( 1.326762908760390170E-13, 1.199999999999987521, 37.99999999999999289 ) ) ;
#166 = ADVANCED_FACE ( 'NONE', ( #49 ), #181, .F. ) ;
#167 = DIRECTION ( 'NONE',  ( 3.491481338843133355E-15, -1.227517819005651059E-16, 1.000000000000000000 ) ) ;
#168 = DIRECTION ( 'NONE',  ( 0.0000000000000000000, 1.000000000000000000, 0.0000000000000000000 ) ) ;
#169 = AXIS2_PLACEMENT_3D ( 'NONE', #17, #167, #151 ) ;
#170 = FACE_OUTER_BOUND ( 'NONE', #55, .T. ) ;
#171 = APPROVAL ( #63, 'UNSPECIFIED' ) ;
#172 = DIRECTION ( 'NONE',  ( 1.000000000000000000, 0.0000000000000000000, 0.0000000000000000000 ) ) ;
#173 = EDGE_CURVE ( 'NONE', #210, #210, #48, .T. ) ;
#174 = CIRCLE ( 'NONE', #169, 0.6000000000000001998 ) ;
#175 = CC_DESIGN_PERSON_AND_ORGANIZATION_ASSIGNMENT ( #85, #150, ( #43 ) ) ;
#176 = CLOSED_SHELL ( 'NONE', ( #3, #192, #155 ) ) ;
#177 = ORIENTED_EDGE ( 'NONE', *, *, #149, .T. ) ;
#178 = DATE_AND_TIME ( #164, #87 ) ;
#179 = ORIENTED_EDGE ( 'NONE', *, *, #77, .F. ) ;
#180 = COORDINATED_UNIVERSAL_TIME_OFFSET ( 1, 0, .AHEAD. ) ;
#181 = PLANE ( 'NONE',  #22 ) ;
#182 = PRODUCT_DEFINITION_FORMATION_WITH_SPECIFIED_SOURCE ( 'ANY', '', #71, .NOT_KNOWN. ) ;
#183 = CYLINDRICAL_SURFACE ( 'NONE', #72, 0.6000000000000000888 ) ;
#184 = CALENDAR_DATE ( 2021, 16, 11 ) ;
#185 = CARTESIAN_POINT ( 'NONE',  ( 1.047444401652939691E-14, -0.6000000000000005329, 2.999999999999999112 ) ) ;
#186 = DATE_TIME_ROLE ( 'creation_date' ) ;
#187 = FACE_OUTER_BOUND ( 'NONE', #196, .T. ) ;
#188 = DIRECTION ( 'NONE',  ( 4.275831445896958607E-31, 1.000000000000000000, 1.224646799147353207E-16 ) ) ;
#189 = AXIS2_PLACEMENT_3D ( 'NONE', #47, #64, #19 ) ;
#190 = MANIFOLD_SOLID_BREP ( 'Corps-Déplacer/Copier1[1]', #154 ) ;
#191 = PERSON ( 'UNSPECIFIED', 'UNSPECIFIED', 'UNSPECIFIED', ('UNSPECIFIED'), ('UNSPECIFIED'), ('UNSPECIFIED') ) ;
#192 = ADVANCED_FACE ( 'NONE', ( #153, #187 ), #183, .T. ) ;
#193 = MANIFOLD_SOLID_BREP ( 'Corps-Déplacer/Copier1[2]', #176 ) ;
#194 = CC_DESIGN_PERSON_AND_ORGANIZATION_ASSIGNMENT ( #161, #200, ( #182 ) ) ;
#195 =( GEOMETRIC_REPRESENTATION_CONTEXT ( 3 ) GLOBAL_UNCERTAINTY_ASSIGNED_CONTEXT ( ( #20 ) ) GLOBAL_UNIT_ASSIGNED_CONTEXT ( ( #6, #212, #101 ) ) REPRESENTATION_CONTEXT ( 'NONE', 'WORKASPACE' ) );
#196 = EDGE_LOOP ( 'NONE', ( #157 ) ) ;
#197 = CC_DESIGN_PERSON_AND_ORGANIZATION_ASSIGNMENT ( #203, #32, ( #182 ) ) ;
#198 = APPROVAL_ROLE ( '' ) ;
#199 = PLANE ( 'NONE',  #40 ) ;
#200 = PERSON_AND_ORGANIZATION_ROLE ( 'design_supplier' ) ;
#201 = FACE_OUTER_BOUND ( 'NONE', #140, .T. ) ;
#202 = DIRECTION ( 'NONE',  ( 3.491481338843133355E-15, -1.227517819005651059E-16, 1.000000000000000000 ) ) ;
#203 = PERSON_AND_ORGANIZATION ( #191, #91 ) ;
#204 = DIRECTION ( 'NONE',  ( 0.0000000000000000000, -1.000000000000000000, 0.0000000000000000000 ) ) ;
#205 = DATE_AND_TIME ( #184, #143 ) ;
#206 = VERTEX_POINT ( 'NONE', #97 ) ;
#207 = DIRECTION ( 'NONE',  ( -4.275831445896958607E-31, -1.000000000000000000, -1.224646799147353207E-16 ) ) ;
#208 = CIRCLE ( 'NONE', #139, 1.199999999999992184 ) ;
#209 = PERSON_AND_ORGANIZATION ( #191, #91 ) ;
#210 = VERTEX_POINT ( 'NONE', #38 ) ;
#211 = AXIS2_PLACEMENT_3D ( 'NONE', #133, #30, #81 ) ;
#212 =( NAMED_UNIT ( * ) PLANE_ANGLE_UNIT ( ) SI_UNIT ( $, .RADIAN. ) );
#213 = CC_DESIGN_DATE_AND_TIME_ASSIGNMENT ( #147, #186, ( #104 ) ) ;
#214 = CC_DESIGN_APPROVAL ( #135, ( #43 ) ) ;
#215 = ORIENTED_EDGE ( 'NONE', *, *, #149, .F. ) ;
#216 = DATE_TIME_ROLE ( 'classification_date' ) ;
#217 = FACE_OUTER_BOUND ( 'NONE', #42, .T. ) ;
#218 = APPROVAL_DATE_TIME ( #178, #221 ) ;
#219 = CARTESIAN_POINT ( 'NONE',  ( 1.316288464743860707E-13, -4.616918432785519503E-15, 37.69999999999998153 ) ) ;
#220 = FACE_OUTER_BOUND ( 'NONE', #119, .T. ) ;
#221 = APPROVAL ( #125, 'UNSPECIFIED' ) ;
#222 = PERSON_AND_ORGANIZATION ( #191, #91 ) ;
#223 = CARTESIAN_POINT ( 'NONE',  ( 1.047444401652939691E-14, -3.682553457016952190E-16, 2.999999999999999112 ) ) ;
ENDSEC;
END-ISO-10303-21;
