ISO-10303-21;
HEADER;
FILE_DESCRIPTION (( 'STEP AP203' ),
    '1' );
FILE_NAME ('966130.step',
    '2021-11-16T15:45:05',
    ( '' ),
    ( '' ),
    'SwSTEP 2.0',
    'SolidWorks 2019',
    '' );
FILE_SCHEMA (( 'CONFIG_CONTROL_DESIGN' ));
ENDSEC;

DATA;
#1 = AXIS2_PLACEMENT_3D ( 'NONE', #236, #145, #183 ) ;
#2 = DIRECTION ( 'NONE',  ( -4.256963957985708889E-31, -1.000000000000000000, -1.219242935835426903E-16 ) ) ;
#3 = CARTESIAN_POINT ( 'NONE',  ( 8.728703347107831810E-15, -0.5000000000000002220, 2.499999999999999556 ) ) ;
#4 = CC_DESIGN_APPROVAL ( #182, ( #58 ) ) ;
#5 = DIRECTION ( 'NONE',  ( 3.491481338843133355E-15, -1.219242935835426903E-16, 1.000000000000000000 ) ) ;
#6 =( NAMED_UNIT ( * ) PLANE_ANGLE_UNIT ( ) SI_UNIT ( $, .RADIAN. ) );
#7 = DIRECTION ( 'NONE',  ( -3.491481338843133355E-15, 1.219242935835426903E-16, -1.000000000000000000 ) ) ;
#8 = DIRECTION ( 'NONE',  ( 3.491481338843133355E-15, -1.219242935835426903E-16, 1.000000000000000000 ) ) ;
#9 = AXIS2_PLACEMENT_3D ( 'NONE', #233, #196, #31 ) ;
#10 = FACE_OUTER_BOUND ( 'NONE', #153, .T. ) ;
#11 = APPROVAL_ROLE ( '' ) ;
#12 = APPROVAL_DATE_TIME ( #109, #38 ) ;
#13 = APPLICATION_CONTEXT ( 'configuration controlled 3d designs of mechanical parts and assemblies' ) ;
#14 = PERSON_AND_ORGANIZATION ( #23, #96 ) ;
#15 = COORDINATED_UNIVERSAL_TIME_OFFSET ( 1, 0, .AHEAD. ) ;
#16 = EDGE_CURVE ( 'NONE', #143, #143, #42, .T. ) ;
#17 = APPROVAL_STATUS ( 'not_yet_approved' ) ;
#18 = ORIENTED_EDGE ( 'NONE', *, *, #120, .T. ) ;
#19 = APPROVAL_PERSON_ORGANIZATION ( #133, #182, #11 ) ;
#20 = EDGE_LOOP ( 'NONE', ( #223 ) ) ;
#21 = ADVANCED_FACE ( 'NONE', ( #48, #210 ), #44, .T. ) ;
#22 = APPLICATION_CONTEXT ( 'configuration controlled 3d designs of mechanical parts and assemblies' ) ;
#23 = PERSON ( 'UNSPECIFIED', 'UNSPECIFIED', 'UNSPECIFIED', ('UNSPECIFIED'), ('UNSPECIFIED'), ('UNSPECIFIED') ) ;
#24 = AXIS2_PLACEMENT_3D ( 'NONE', #181, #47, #29 ) ;
#25 = CARTESIAN_POINT ( 'NONE',  ( 8.728703347107833388E-15, 1.124819836996383764E-32, 2.500000000000000000 ) ) ;
#26 = CARTESIAN_POINT ( 'NONE',  ( 8.728703347107831810E-15, -0.5000000000000002220, 2.499999999999999556 ) ) ;
#27 = DIRECTION ( 'NONE',  ( -4.275831445896958607E-31, -1.000000000000000000, -1.224646799147353207E-16 ) ) ;
#28 = CARTESIAN_POINT ( 'NONE',  ( 1.326762908760390170E-13, 1.199999999999987521, 37.99999999999999289 ) ) ;
#29 = DIRECTION ( 'NONE',  ( 0.0000000000000000000, -1.000000000000000000, 0.0000000000000000000 ) ) ;
#30 = ADVANCED_FACE ( 'NONE', ( #83, #81 ), #65, .T. ) ;
#31 = DIRECTION ( 'NONE',  ( 0.0000000000000000000, 1.000000000000000000, 0.0000000000000000000 ) ) ;
#32 =( GEOMETRIC_REPRESENTATION_CONTEXT ( 3 ) GLOBAL_UNCERTAINTY_ASSIGNED_CONTEXT ( ( #62 ) ) GLOBAL_UNIT_ASSIGNED_CONTEXT ( ( #125, #6, #89 ) ) REPRESENTATION_CONTEXT ( 'NONE', 'WORKASPACE' ) );
#33 = COORDINATED_UNIVERSAL_TIME_OFFSET ( 1, 0, .AHEAD. ) ;
#34 = CALENDAR_DATE ( 2021, 16, 11 ) ;
#35 = CIRCLE ( 'NONE', #214, 1.499999999999992006 ) ;
#36 = PERSON_AND_ORGANIZATION ( #23, #96 ) ;
#37 = PERSON_AND_ORGANIZATION ( #23, #96 ) ;
#38 = APPROVAL ( #17, 'UNSPECIFIED' ) ;
#39 = LOCAL_TIME ( 16, 45, 5.000000000000000000, #15 ) ;
#40 = ORIENTED_EDGE ( 'NONE', *, *, #126, .T. ) ;
#41 = ADVANCED_FACE ( 'NONE', ( #159 ), #179, .T. ) ;
#42 = CIRCLE ( 'NONE', #208, 0.5681483474218603780 ) ;
#43 = CIRCLE ( 'NONE', #50, 0.4999999999999998890 ) ;
#44 = CYLINDRICAL_SURFACE ( 'NONE', #165, 0.5000000000000000000 ) ;
#45 = FACE_OUTER_BOUND ( 'NONE', #207, .T. ) ;
#46 = FACE_OUTER_BOUND ( 'NONE', #61, .T. ) ;
#47 = DIRECTION ( 'NONE',  ( 3.491481338843133355E-15, -1.219242935835426903E-16, 1.000000000000000000 ) ) ;
#48 = FACE_OUTER_BOUND ( 'NONE', #116, .T. ) ;
#49 = VERTEX_POINT ( 'NONE', #26 ) ;
#50 = AXIS2_PLACEMENT_3D ( 'NONE', #64, #5, #140 ) ;
#51 = CARTESIAN_POINT ( 'NONE',  ( 2.267841357442615753E-14, -1.499999999999990674, 6.495355802743720375 ) ) ;
#52 = PERSON_AND_ORGANIZATION_ROLE ( 'creator' ) ;
#53 = LOCAL_TIME ( 16, 45, 5.000000000000000000, #203 ) ;
#54 = CALENDAR_DATE ( 2021, 16, 11 ) ;
#55 = CALENDAR_DATE ( 2021, 16, 11 ) ;
#56 = CC_DESIGN_APPROVAL ( #128, ( #115 ) ) ;
#57 = APPLICATION_PROTOCOL_DEFINITION ( 'international standard', 'config_control_design', 1994, #22 ) ;
#58 = PRODUCT_DEFINITION ( 'UNKNOWN', '', #115, #101 ) ;
#59 = EDGE_LOOP ( 'NONE', ( #97 ) ) ;
#60 = ADVANCED_FACE ( 'NONE', ( #104 ), #118, .F. ) ;
#61 = EDGE_LOOP ( 'NONE', ( #138 ) ) ;
#62 = UNCERTAINTY_MEASURE_WITH_UNIT (LENGTH_MEASURE( 1.000000000000000082E-05 ), #125, 'distance_accuracy_value', 'NONE');
#63 = CARTESIAN_POINT ( 'NONE',  ( 8.728703347107833388E-15, 1.124819836996383764E-32, 2.500000000000000000 ) ) ;
#64 = CARTESIAN_POINT ( 'NONE',  ( 8.728703347107831810E-15, -3.048107339588566764E-16, 2.499999999999999556 ) ) ;
#65 = CYLINDRICAL_SURFACE ( 'NONE', #69, 1.499999999999989786 ) ;
#66 = CARTESIAN_POINT ( 'NONE',  ( 1.316288464743860707E-13, -4.616918432785519503E-15, 37.69999999999998153 ) ) ;
#67 = EDGE_CURVE ( 'NONE', #49, #49, #43, .T. ) ;
#68 = DIRECTION ( 'NONE',  ( 0.0000000000000000000, -1.000000000000000000, 0.0000000000000000000 ) ) ;
#69 = AXIS2_PLACEMENT_3D ( 'NONE', #102, #157, #230 ) ;
#70 = DIRECTION ( 'NONE',  ( 0.0000000000000000000, -1.000000000000000000, 0.0000000000000000000 ) ) ;
#71 = CARTESIAN_POINT ( 'NONE',  ( 1.326762908760390170E-13, -4.653657836759941152E-15, 37.99999999999999289 ) ) ;
#72 = ADVANCED_FACE ( 'NONE', ( #46 ), #121, .F. ) ;
#73 = COORDINATED_UNIVERSAL_TIME_OFFSET ( 1, 0, .AHEAD. ) ;
#74 = LOCAL_TIME ( 16, 45, 5.000000000000000000, #92 ) ;
#75 = EDGE_CURVE ( 'NONE', #103, #103, #80, .T. ) ;
#76 = APPLICATION_PROTOCOL_DEFINITION ( 'international standard', 'config_control_design', 1994, #13 ) ;
#77 = AXIS2_PLACEMENT_3D ( 'NONE', #163, #8, #194 ) ;
#78 = CALENDAR_DATE ( 2021, 16, 11 ) ;
#79 = ORIENTED_EDGE ( 'NONE', *, *, #126, .F. ) ;
#80 = CIRCLE ( 'NONE', #9, 1.199999999999992184 ) ;
#81 = FACE_OUTER_BOUND ( 'NONE', #227, .T. ) ;
#82 = CC_DESIGN_PERSON_AND_ORGANIZATION_ASSIGNMENT ( #94, #220, ( #217 ) ) ;
#83 = FACE_OUTER_BOUND ( 'NONE', #243, .T. ) ;
#84 = DIRECTION ( 'NONE',  ( 3.491481338843133355E-15, -1.219242935835426903E-16, 1.000000000000000000 ) ) ;
#85 = AXIS2_PLACEMENT_3D ( 'NONE', #63, #209, #27 ) ;
#86 = DIRECTION ( 'NONE',  ( -3.491481338843133355E-15, 1.224646799147353207E-16, -1.000000000000000000 ) ) ;
#87 = CARTESIAN_POINT ( 'NONE',  ( 1.316288464743860707E-13, 1.499999999999987566, 37.69999999999998153 ) ) ;
#88 = PRODUCT_DEFINITION_SHAPE ( 'NONE', 'NONE',  #58 ) ;
#89 =( NAMED_UNIT ( * ) SI_UNIT ( $, .STERADIAN. ) SOLID_ANGLE_UNIT ( ) );
#90 = EDGE_CURVE ( 'NONE', #177, #177, #226, .T. ) ;
#91 = PLANE ( 'NONE',  #242 ) ;
#92 = COORDINATED_UNIVERSAL_TIME_OFFSET ( 1, 0, .AHEAD. ) ;
#93 = SHAPE_DEFINITION_REPRESENTATION ( #88, #191 ) ;
#94 = PERSON_AND_ORGANIZATION ( #23, #96 ) ;
#95 = APPROVAL_ROLE ( '' ) ;
#96 = ORGANIZATION ( 'UNSPECIFIED', 'UNSPECIFIED', '' ) ;
#97 = ORIENTED_EDGE ( 'NONE', *, *, #120, .F. ) ;
#98 = ORIENTED_EDGE ( 'NONE', *, *, #16, .F. ) ;
#99 = ORIENTED_EDGE ( 'NONE', *, *, #144, .T. ) ;
#100 = APPROVAL_PERSON_ORGANIZATION ( #36, #128, #218 ) ;
#101 = DESIGN_CONTEXT ( 'detailed design', #13, 'design' ) ;
#102 = CARTESIAN_POINT ( 'NONE',  ( 0.0000000000000000000, 0.0000000000000000000, 0.0000000000000000000 ) ) ;
#103 = VERTEX_POINT ( 'NONE', #28 ) ;
#104 = FACE_OUTER_BOUND ( 'NONE', #20, .T. ) ;
#105 = ADVANCED_FACE ( 'NONE', ( #127, #211 ), #152, .T. ) ;
#106 = CARTESIAN_POINT ( 'NONE',  ( 3.570879932466769164E-14, -1.246969326154030682E-15, 10.22740661031269838 ) ) ;
#107 = DIRECTION ( 'NONE',  ( -3.491481338843133355E-15, 1.224646799147353207E-16, -1.000000000000000000 ) ) ;
#108 = AXIS2_PLACEMENT_3D ( 'NONE', #234, #7, #68 ) ;
#109 = DATE_AND_TIME ( #34, #74 ) ;
#110 = DATE_TIME_ROLE ( 'classification_date' ) ;
#111 = CIRCLE ( 'NONE', #77, 0.5000000000000000000 ) ;
#112 = PERSON_AND_ORGANIZATION ( #23, #96 ) ;
#113 = CALENDAR_DATE ( 2021, 16, 11 ) ;
#114 = ORIENTED_EDGE ( 'NONE', *, *, #144, .F. ) ;
#115 = PRODUCT_DEFINITION_FORMATION_WITH_SPECIFIED_SOURCE ( 'ANY', '', #217, .NOT_KNOWN. ) ;
#116 = EDGE_LOOP ( 'NONE', ( #40 ) ) ;
#117 = AXIS2_PLACEMENT_3D ( 'NONE', #25, #193, #231 ) ;
#118 = PLANE ( 'NONE',  #117 ) ;
#119 = CARTESIAN_POINT ( 'NONE',  ( 1.053602707933308977E-14, -0.5681483474218607110, 3.017638090205028600 ) ) ;
#120 = EDGE_CURVE ( 'NONE', #216, #216, #35, .T. ) ;
#121 = PLANE ( 'NONE',  #132 ) ;
#122 = DIRECTION ( 'NONE',  ( -4.275831445896958607E-31, -1.000000000000000000, -1.224646799147353207E-16 ) ) ;
#123 = DIRECTION ( 'NONE',  ( 3.491481338843133355E-15, -1.219242935835426903E-16, 1.000000000000000000 ) ) ;
#124 = CC_DESIGN_DATE_AND_TIME_ASSIGNMENT ( #188, #110, ( #148 ) ) ;
#125 =( LENGTH_UNIT ( ) NAMED_UNIT ( * ) SI_UNIT ( .MILLI., .METRE. ) );
#126 = EDGE_CURVE ( 'NONE', #160, #160, #111, .T. ) ;
#127 = FACE_OUTER_BOUND ( 'NONE', #59, .T. ) ;
#128 = APPROVAL ( #170, 'UNSPECIFIED' ) ;
#129 = PERSON_AND_ORGANIZATION ( #23, #96 ) ;
#130 = DATE_TIME_ROLE ( 'creation_date' ) ;
#131 = DATE_AND_TIME ( #78, #53 ) ;
#132 = AXIS2_PLACEMENT_3D ( 'NONE', #195, #86, #161 ) ;
#133 = PERSON_AND_ORGANIZATION ( #23, #96 ) ;
#134 = ORIENTED_EDGE ( 'NONE', *, *, #90, .T. ) ;
#135 = CC_DESIGN_PERSON_AND_ORGANIZATION_ASSIGNMENT ( #37, #201, ( #148 ) ) ;
#136 = EDGE_LOOP ( 'NONE', ( #221 ) ) ;
#137 = CC_DESIGN_APPROVAL ( #38, ( #148 ) ) ;
#138 = ORIENTED_EDGE ( 'NONE', *, *, #75, .F. ) ;
#139 = CARTESIAN_POINT ( 'NONE',  ( 0.0000000000000000000, 0.0000000000000000000, 0.0000000000000000000 ) ) ;
#140 = DIRECTION ( 'NONE',  ( 0.0000000000000000000, -1.000000000000000000, 0.0000000000000000000 ) ) ;
#141 = CARTESIAN_POINT ( 'NONE',  ( 1.053602707933308977E-14, -3.679233924390390001E-16, 3.017638090205028600 ) ) ;
#142 = DIRECTION ( 'NONE',  ( 0.0000000000000000000, 1.000000000000000000, 0.0000000000000000000 ) ) ;
#143 = VERTEX_POINT ( 'NONE', #119 ) ;
#144 = EDGE_CURVE ( 'NONE', #180, #180, #219, .T. ) ;
#145 = DIRECTION ( 'NONE',  ( 3.491481338843133355E-15, -1.219242935835426903E-16, 1.000000000000000000 ) ) ;
#146 = FACE_BOUND ( 'NONE', #155, .T. ) ;
#147 = DATE_AND_TIME ( #55, #158 ) ;
#148 = SECURITY_CLASSIFICATION ( '', '', #205 ) ;
#149 = APPROVAL_STATUS ( 'not_yet_approved' ) ;
#150 = MANIFOLD_SOLID_BREP ( 'Corps-Déplacer/Copier1[1]', #235 ) ;
#151 = APPROVAL_DATE_TIME ( #240, #128 ) ;
#152 = CONICAL_SURFACE ( 'NONE', #184, 1.199999999999992184, 0.7853981633974338461 ) ;
#153 = EDGE_LOOP ( 'NONE', ( #134 ) ) ;
#154 = CC_DESIGN_DATE_AND_TIME_ASSIGNMENT ( #131, #130, ( #58 ) ) ;
#155 = EDGE_LOOP ( 'NONE', ( #225 ) ) ;
#156 = CLOSED_SHELL ( 'NONE', ( #41, #21, #162 ) ) ;
#157 = DIRECTION ( 'NONE',  ( -3.491481338843133355E-15, 1.224646799147353207E-16, -1.000000000000000000 ) ) ;
#158 = LOCAL_TIME ( 16, 45, 5.000000000000000000, #73 ) ;
#159 = FACE_OUTER_BOUND ( 'NONE', #206, .T. ) ;
#160 = VERTEX_POINT ( 'NONE', #232 ) ;
#161 = DIRECTION ( 'NONE',  ( 4.275831445896958607E-31, 1.000000000000000000, 1.224646799147353207E-16 ) ) ;
#162 = ADVANCED_FACE ( 'NONE', ( #185 ), #91, .F. ) ;
#163 = CARTESIAN_POINT ( 'NONE',  ( -5.130057060786731003E-30, 1.791441862286835181E-31, -1.469306739152305850E-15 ) ) ;
#164 = CC_DESIGN_PERSON_AND_ORGANIZATION_ASSIGNMENT ( #14, #52, ( #58 ) ) ;
#165 = AXIS2_PLACEMENT_3D ( 'NONE', #139, #123, #2 ) ;
#166 = FACE_OUTER_BOUND ( 'NONE', #190, .T. ) ;
#167 = CARTESIAN_POINT ( 'NONE',  ( 0.0000000000000000000, 0.0000000000000000000, 0.0000000000000000000 ) ) ;
#168 = DIRECTION ( 'NONE',  ( 1.000000000000000000, 0.0000000000000000000, 0.0000000000000000000 ) ) ;
#169 = CC_DESIGN_SECURITY_CLASSIFICATION ( #148, ( #115 ) ) ;
#170 = APPROVAL_STATUS ( 'not_yet_approved' ) ;
#171 = APPROVAL_DATE_TIME ( #147, #182 ) ;
#172 = MECHANICAL_CONTEXT ( 'NONE', #22, 'mechanical' ) ;
#173 = EDGE_LOOP ( 'NONE', ( #189 ) ) ;
#174 = TOROIDAL_SURFACE ( 'NONE', #1, 2.500000000000000444, 2.000000000000000000 ) ;
#175 = EDGE_LOOP ( 'NONE', ( #79 ) ) ;
#176 = DIRECTION ( 'NONE',  ( 3.491481338843133355E-15, -1.219242935835426903E-16, 1.000000000000000000 ) ) ;
#177 = VERTEX_POINT ( 'NONE', #3 ) ;
#178 = CONICAL_SURFACE ( 'NONE', #204, 2.499999999999991118, 0.2617993877991429685 ) ;
#179 = PLANE ( 'NONE',  #85 ) ;
#180 = VERTEX_POINT ( 'NONE', #51 ) ;
#181 = CARTESIAN_POINT ( 'NONE',  ( 8.728703347107831810E-15, -3.048107339588566764E-16, 2.499999999999999556 ) ) ;
#182 = APPROVAL ( #149, 'UNSPECIFIED' ) ;
#183 = DIRECTION ( 'NONE',  ( -4.315975723326284799E-31, -1.000000000000000000, -1.219242935835426903E-16 ) ) ;
#184 = AXIS2_PLACEMENT_3D ( 'NONE', #71, #198, #199 ) ;
#185 = FACE_OUTER_BOUND ( 'NONE', #175, .T. ) ;
#186 = PERSON_AND_ORGANIZATION_ROLE ( 'creator' ) ;
#187 = CC_DESIGN_PERSON_AND_ORGANIZATION_ASSIGNMENT ( #129, #202, ( #115 ) ) ;
#188 = DATE_AND_TIME ( #113, #39 ) ;
#189 = ORIENTED_EDGE ( 'NONE', *, *, #67, .F. ) ;
#190 = EDGE_LOOP ( 'NONE', ( #98 ) ) ;
#191 = ADVANCED_BREP_SHAPE_REPRESENTATION ( '966130', ( #150, #228, #200 ), #32 ) ;
#192 = PRODUCT_RELATED_PRODUCT_CATEGORY ( 'detail', '', ( #217 ) ) ;
#193 = DIRECTION ( 'NONE',  ( 3.491481338843133355E-15, -1.224646799147353207E-16, 1.000000000000000000 ) ) ;
#194 = DIRECTION ( 'NONE',  ( -4.256963957985712392E-31, -1.000000000000000000, -1.219242935835425424E-16 ) ) ;
#195 = CARTESIAN_POINT ( 'NONE',  ( 1.326762908760390170E-13, 8.998558695971017012E-33, 37.99999999999999289 ) ) ;
#196 = DIRECTION ( 'NONE',  ( -3.491481338843133355E-15, 1.224646799147353207E-16, -1.000000000000000000 ) ) ;
#197 = APPROVAL_PERSON_ORGANIZATION ( #239, #38, #95 ) ;
#198 = DIRECTION ( 'NONE',  ( -3.491481338843133355E-15, 1.224646799147353207E-16, -1.000000000000000000 ) ) ;
#199 = DIRECTION ( 'NONE',  ( 0.0000000000000000000, 1.000000000000000000, 0.0000000000000000000 ) ) ;
#200 = AXIS2_PLACEMENT_3D ( 'NONE', #167, #237, #168 ) ;
#201 = PERSON_AND_ORGANIZATION_ROLE ( 'classification_officer' ) ;
#202 = PERSON_AND_ORGANIZATION_ROLE ( 'design_supplier' ) ;
#203 = COORDINATED_UNIVERSAL_TIME_OFFSET ( 1, 0, .AHEAD. ) ;
#204 = AXIS2_PLACEMENT_3D ( 'NONE', #106, #84, #70 ) ;
#205 = SECURITY_CLASSIFICATION_LEVEL ( 'unclassified' ) ;
#206 = EDGE_LOOP ( 'NONE', ( #229 ) ) ;
#207 = EDGE_LOOP ( 'NONE', ( #99 ) ) ;
#208 = AXIS2_PLACEMENT_3D ( 'NONE', #141, #176, #212 ) ;
#209 = DIRECTION ( 'NONE',  ( 3.491481338843133355E-15, -1.224646799147353207E-16, 1.000000000000000000 ) ) ;
#210 = FACE_OUTER_BOUND ( 'NONE', #173, .T. ) ;
#211 = FACE_BOUND ( 'NONE', #136, .T. ) ;
#212 = DIRECTION ( 'NONE',  ( 0.0000000000000000000, -1.000000000000000000, 0.0000000000000000000 ) ) ;
#213 = DIRECTION ( 'NONE',  ( 3.491481338843133355E-15, -1.224646799147353207E-16, 1.000000000000000000 ) ) ;
#214 = AXIS2_PLACEMENT_3D ( 'NONE', #66, #107, #142 ) ;
#215 = CARTESIAN_POINT ( 'NONE',  ( -2.137917073001454058E-30, 7.498803648657679327E-32, -6.123237862442165323E-16 ) ) ;
#216 = VERTEX_POINT ( 'NONE', #87 ) ;
#217 = PRODUCT ( '966130', '966130', '', ( #172 ) ) ;
#218 = APPROVAL_ROLE ( '' ) ;
#219 = CIRCLE ( 'NONE', #108, 1.499999999999989786 ) ;
#220 = PERSON_AND_ORGANIZATION_ROLE ( 'design_owner' ) ;
#221 = ORIENTED_EDGE ( 'NONE', *, *, #75, .T. ) ;
#222 = ADVANCED_FACE ( 'NONE', ( #10, #166 ), #174, .F. ) ;
#223 = ORIENTED_EDGE ( 'NONE', *, *, #90, .F. ) ;
#224 = CC_DESIGN_PERSON_AND_ORGANIZATION_ASSIGNMENT ( #112, #186, ( #115 ) ) ;
#225 = ORIENTED_EDGE ( 'NONE', *, *, #16, .T. ) ;
#226 = CIRCLE ( 'NONE', #24, 0.4999999999999998890 ) ;
#227 = EDGE_LOOP ( 'NONE', ( #114 ) ) ;
#228 = MANIFOLD_SOLID_BREP ( 'Corps-Déplacer/Copier1[2]', #156 ) ;
#229 = ORIENTED_EDGE ( 'NONE', *, *, #67, .T. ) ;
#230 = DIRECTION ( 'NONE',  ( 4.275831445896959482E-31, 1.000000000000000000, 1.224646799147353207E-16 ) ) ;
#231 = DIRECTION ( 'NONE',  ( -4.275831445896958607E-31, -1.000000000000000000, -1.224646799147353207E-16 ) ) ;
#232 = CARTESIAN_POINT ( 'NONE',  ( -5.342905258686016666E-30, -0.5000000000000000000, -1.530268885944077097E-15 ) ) ;
#233 = CARTESIAN_POINT ( 'NONE',  ( 1.326762908760390170E-13, -4.653657836759941152E-15, 37.99999999999999289 ) ) ;
#234 = CARTESIAN_POINT ( 'NONE',  ( 2.267841357442615753E-14, -7.919416678232929501E-16, 6.495355802743720375 ) ) ;
#235 = CLOSED_SHELL ( 'NONE', ( #30, #105, #72, #241, #222, #60 ) ) ;
#236 = CARTESIAN_POINT ( 'NONE',  ( 8.728703347107831810E-15, -4.336808689942017736E-16, 2.499999999999999556 ) ) ;
#237 = DIRECTION ( 'NONE',  ( 0.0000000000000000000, 0.0000000000000000000, 1.000000000000000000 ) ) ;
#238 = LOCAL_TIME ( 16, 45, 5.000000000000000000, #33 ) ;
#239 = PERSON_AND_ORGANIZATION ( #23, #96 ) ;
#240 = DATE_AND_TIME ( #54, #238 ) ;
#241 = ADVANCED_FACE ( 'NONE', ( #146, #45 ), #178, .T. ) ;
#242 = AXIS2_PLACEMENT_3D ( 'NONE', #215, #213, #122 ) ;
#243 = EDGE_LOOP ( 'NONE', ( #18 ) ) ;
ENDSEC;
END-ISO-10303-21;
