ISO-10303-21;
HEADER;
FILE_DESCRIPTION (( 'STEP AP203' ),
    '1' );
FILE_NAME ('966129.step',
    '2021-11-16T15:45:04',
    ( '' ),
    ( '' ),
    'SwSTEP 2.0',
    'SolidWorks 2019',
    '' );
FILE_SCHEMA (( 'CONFIG_CONTROL_DESIGN' ));
ENDSEC;

DATA;
#1 = DIRECTION ( 'NONE',  ( 3.491481338843133355E-15, -1.219242935835426903E-16, 1.000000000000000000 ) ) ;
#2 = DIRECTION ( 'NONE',  ( -4.275831445896958607E-31, -1.000000000000000000, -1.224646799147353207E-16 ) ) ;
#3 = FACE_OUTER_BOUND ( 'NONE', #65, .T. ) ;
#4 =( NAMED_UNIT ( * ) PLANE_ANGLE_UNIT ( ) SI_UNIT ( $, .RADIAN. ) );
#5 = AXIS2_PLACEMENT_3D ( 'NONE', #38, #111, #192 ) ;
#6 = CARTESIAN_POINT ( 'NONE',  ( 2.265502508429786976E-14, -1.499999999999990674, 6.488657072932941361 ) ) ;
#7 = MECHANICAL_CONTEXT ( 'NONE', #158, 'mechanical' ) ;
#8 = ORIENTED_EDGE ( 'NONE', *, *, #142, .F. ) ;
#9 = CC_DESIGN_APPROVAL ( #237, ( #45 ) ) ;
#10 = AXIS2_PLACEMENT_3D ( 'NONE', #205, #243, #194 ) ;
#11 = EDGE_LOOP ( 'NONE', ( #106 ) ) ;
#12 = EDGE_LOOP ( 'NONE', ( #168 ) ) ;
#13 = FACE_OUTER_BOUND ( 'NONE', #31, .T. ) ;
#14 = CLOSED_SHELL ( 'NONE', ( #204, #67, #226, #110, #81, #157 ) ) ;
#15 = CARTESIAN_POINT ( 'NONE',  ( 0.0000000000000000000, 0.0000000000000000000, 0.0000000000000000000 ) ) ;
#16 = DIRECTION ( 'NONE',  ( -3.491481338843133355E-15, 1.224646799147353207E-16, -1.000000000000000000 ) ) ;
#17 = FACE_OUTER_BOUND ( 'NONE', #11, .T. ) ;
#18 = DIRECTION ( 'NONE',  ( -4.256963957985705386E-31, -1.000000000000000000, -1.219242935835426410E-16 ) ) ;
#19 = DIRECTION ( 'NONE',  ( 1.000000000000000000, 0.0000000000000000000, 0.0000000000000000000 ) ) ;
#20 = AXIS2_PLACEMENT_3D ( 'NONE', #170, #171, #125 ) ;
#21 = VERTEX_POINT ( 'NONE', #47 ) ;
#22 = CC_DESIGN_PERSON_AND_ORGANIZATION_ASSIGNMENT ( #218, #120, ( #45 ) ) ;
#23 = PERSON_AND_ORGANIZATION ( #230, #85 ) ;
#24 = CARTESIAN_POINT ( 'NONE',  ( 1.326762908760390170E-13, 1.199999999999987521, 37.99999999999999289 ) ) ;
#25 = PRODUCT_DEFINITION_SHAPE ( 'NONE', 'NONE',  #216 ) ;
#26 = APPLICATION_PROTOCOL_DEFINITION ( 'international standard', 'config_control_design', 1994, #158 ) ;
#27 = CC_DESIGN_PERSON_AND_ORGANIZATION_ASSIGNMENT ( #143, #238, ( #45 ) ) ;
#28 = EDGE_LOOP ( 'NONE', ( #199 ) ) ;
#29 = PRODUCT ( '966129', '966129', '', ( #7 ) ) ;
#30 = APPROVAL_DATE_TIME ( #198, #237 ) ;
#31 = EDGE_LOOP ( 'NONE', ( #166 ) ) ;
#32 = APPROVAL_ROLE ( '' ) ;
#33 = CC_DESIGN_APPROVAL ( #197, ( #66 ) ) ;
#34 = CARTESIAN_POINT ( 'NONE',  ( 8.379555213223516897E-15, -2.926183046005023679E-16, 2.399999999999999467 ) ) ;
#35 = EDGE_CURVE ( 'NONE', #21, #21, #202, .T. ) ;
#36 = FACE_OUTER_BOUND ( 'NONE', #239, .T. ) ;
#37 = CONICAL_SURFACE ( 'NONE', #195, 1.199999999999992184, 0.7853981633974338461 ) ;
#38 = CARTESIAN_POINT ( 'NONE',  ( 0.0000000000000000000, 0.0000000000000000000, 0.0000000000000000000 ) ) ;
#39 = APPROVAL ( #196, 'UNSPECIFIED' ) ;
#40 = APPROVAL_PERSON_ORGANIZATION ( #23, #237, #231 ) ;
#41 = CARTESIAN_POINT ( 'NONE',  ( 8.379555213223518475E-15, 1.124819836996383764E-32, 2.399999999999999911 ) ) ;
#42 = DIRECTION ( 'NONE',  ( -4.275831445896958607E-31, -1.000000000000000000, -1.224646799147353207E-16 ) ) ;
#43 = APPROVAL_ROLE ( '' ) ;
#44 = APPROVAL_DATE_TIME ( #73, #39 ) ;
#45 = PRODUCT_DEFINITION_FORMATION_WITH_SPECIFIED_SOURCE ( 'ANY', '', #29, .NOT_KNOWN. ) ;
#46 = EDGE_CURVE ( 'NONE', #76, #76, #50, .T. ) ;
#47 = CARTESIAN_POINT ( 'NONE',  ( 8.379555213223516897E-15, -0.4750000000000006994, 2.399999999999999467 ) ) ;
#48 = CARTESIAN_POINT ( 'NONE',  ( 8.379555213223516897E-15, -0.4750000000000006994, 2.399999999999999467 ) ) ;
#49 = EDGE_CURVE ( 'NONE', #180, #180, #160, .T. ) ;
#50 = CIRCLE ( 'NONE', #74, 1.499999999999992006 ) ;
#51 = COORDINATED_UNIVERSAL_TIME_OFFSET ( 1, 0, .AHEAD. ) ;
#52 = DATE_AND_TIME ( #83, #152 ) ;
#53 = AXIS2_PLACEMENT_3D ( 'NONE', #175, #151, #206 ) ;
#54 = AXIS2_PLACEMENT_3D ( 'NONE', #112, #207, #241 ) ;
#55 = DIRECTION ( 'NONE',  ( 0.0000000000000000000, -1.000000000000000000, 0.0000000000000000000 ) ) ;
#56 = DIRECTION ( 'NONE',  ( 3.491481338843133355E-15, -1.219242935835426903E-16, 1.000000000000000000 ) ) ;
#57 = DIRECTION ( 'NONE',  ( 3.491481338843133355E-15, -1.219242935835426903E-16, 1.000000000000000000 ) ) ;
#58 = DIRECTION ( 'NONE',  ( 3.491481338843133355E-15, -1.224646799147353207E-16, 1.000000000000000000 ) ) ;
#59 = DIRECTION ( 'NONE',  ( 0.0000000000000000000, 0.0000000000000000000, 1.000000000000000000 ) ) ;
#60 = CC_DESIGN_PERSON_AND_ORGANIZATION_ASSIGNMENT ( #182, #123, ( #66 ) ) ;
#61 = COORDINATED_UNIVERSAL_TIME_OFFSET ( 1, 0, .AHEAD. ) ;
#62 = CLOSED_SHELL ( 'NONE', ( #84, #189, #99 ) ) ;
#63 = ORIENTED_EDGE ( 'NONE', *, *, #49, .T. ) ;
#64 = SHAPE_DEFINITION_REPRESENTATION ( #25, #228 ) ;
#65 = EDGE_LOOP ( 'NONE', ( #234 ) ) ;
#66 = SECURITY_CLASSIFICATION ( '', '', #121 ) ;
#67 = ADVANCED_FACE ( 'NONE', ( #224, #153 ), #37, .T. ) ;
#68 = CARTESIAN_POINT ( 'NONE',  ( 1.326762908760390170E-13, -4.653657836759941152E-15, 37.99999999999999289 ) ) ;
#69 = FACE_OUTER_BOUND ( 'NONE', #187, .T. ) ;
#70 = FACE_BOUND ( 'NONE', #102, .T. ) ;
#71 = FACE_OUTER_BOUND ( 'NONE', #138, .T. ) ;
#72 = FACE_OUTER_BOUND ( 'NONE', #183, .T. ) ;
#73 = DATE_AND_TIME ( #94, #137 ) ;
#74 = AXIS2_PLACEMENT_3D ( 'NONE', #91, #16, #113 ) ;
#75 = PERSON_AND_ORGANIZATION ( #230, #85 ) ;
#76 = VERTEX_POINT ( 'NONE', #118 ) ;
#77 = CONICAL_SURFACE ( 'NONE', #10, 2.499999999999991118, 0.2617993877991429685 ) ;
#78 = VERTEX_POINT ( 'NONE', #48 ) ;
#79 = CIRCLE ( 'NONE', #124, 0.4750000000000005884 ) ;
#80 = CALENDAR_DATE ( 2021, 16, 11 ) ;
#81 = ADVANCED_FACE ( 'NONE', ( #129, #90 ), #139, .F. ) ;
#82 = ORIENTED_EDGE ( 'NONE', *, *, #46, .T. ) ;
#83 = CALENDAR_DATE ( 2021, 16, 11 ) ;
#84 = ADVANCED_FACE ( 'NONE', ( #69 ), #93, .T. ) ;
#85 = ORGANIZATION ( 'UNSPECIFIED', 'UNSPECIFIED', '' ) ;
#86 = DIRECTION ( 'NONE',  ( 3.491481338843133355E-15, -1.224646799147353207E-16, 1.000000000000000000 ) ) ;
#87 = DESIGN_CONTEXT ( 'detailed design', #92, 'design' ) ;
#88 = DIRECTION ( 'NONE',  ( 3.491481338843133355E-15, -1.219242935835426903E-16, 1.000000000000000000 ) ) ;
#89 = PRODUCT_RELATED_PRODUCT_CATEGORY ( 'detail', '', ( #29 ) ) ;
#90 = FACE_OUTER_BOUND ( 'NONE', #201, .T. ) ;
#91 = CARTESIAN_POINT ( 'NONE',  ( 1.316288464743860707E-13, -4.616918432785519503E-15, 37.69999999999998153 ) ) ;
#92 = APPLICATION_CONTEXT ( 'configuration controlled 3d designs of mechanical parts and assemblies' ) ;
#93 = PLANE ( 'NONE',  #240 ) ;
#94 = CALENDAR_DATE ( 2021, 16, 11 ) ;
#95 = AXIS2_PLACEMENT_3D ( 'NONE', #127, #209, #174 ) ;
#96 = PERSON_AND_ORGANIZATION_ROLE ( 'creator' ) ;
#97 = APPROVAL_STATUS ( 'not_yet_approved' ) ;
#98 =( NAMED_UNIT ( * ) SI_UNIT ( $, .STERADIAN. ) SOLID_ANGLE_UNIT ( ) );
#99 = ADVANCED_FACE ( 'NONE', ( #72 ), #172, .F. ) ;
#100 = CALENDAR_DATE ( 2021, 16, 11 ) ;
#101 = AXIS2_PLACEMENT_3D ( 'NONE', #108, #57, #193 ) ;
#102 = EDGE_LOOP ( 'NONE', ( #236 ) ) ;
#103 = CC_DESIGN_PERSON_AND_ORGANIZATION_ASSIGNMENT ( #75, #212, ( #29 ) ) ;
#104 = ORIENTED_EDGE ( 'NONE', *, *, #46, .F. ) ;
#105 = AXIS2_PLACEMENT_3D ( 'NONE', #132, #59, #19 ) ;
#106 = ORIENTED_EDGE ( 'NONE', *, *, #35, .F. ) ;
#107 = APPROVAL_DATE_TIME ( #217, #197 ) ;
#108 = CARTESIAN_POINT ( 'NONE',  ( 8.379555213223516897E-15, -4.336808689942017736E-16, 2.399999999999999467 ) ) ;
#109 = CYLINDRICAL_SURFACE ( 'NONE', #188, 0.4750000000000004774 ) ;
#110 = ADVANCED_FACE ( 'NONE', ( #70, #148 ), #77, .T. ) ;
#111 = DIRECTION ( 'NONE',  ( -3.491481338843133355E-15, 1.224646799147353207E-16, -1.000000000000000000 ) ) ;
#112 = CARTESIAN_POINT ( 'NONE',  ( 1.326762908760390170E-13, -4.653657836759941152E-15, 37.99999999999999289 ) ) ;
#113 = DIRECTION ( 'NONE',  ( 0.0000000000000000000, 1.000000000000000000, 0.0000000000000000000 ) ) ;
#114 = COORDINATED_UNIVERSAL_TIME_OFFSET ( 1, 0, .AHEAD. ) ;
#115 = PERSON_AND_ORGANIZATION ( #230, #85 ) ;
#116 = CARTESIAN_POINT ( 'NONE',  ( 1.018687894544877643E-14, -0.5431483474218612439, 2.917638090205028512 ) ) ;
#117 = PLANE ( 'NONE',  #225 ) ;
#118 = CARTESIAN_POINT ( 'NONE',  ( 1.316288464743860707E-13, 1.499999999999987566, 37.69999999999998153 ) ) ;
#119 =( GEOMETRIC_REPRESENTATION_CONTEXT ( 3 ) GLOBAL_UNCERTAINTY_ASSIGNED_CONTEXT ( ( #169 ) ) GLOBAL_UNIT_ASSIGNED_CONTEXT ( ( #181, #4, #98 ) ) REPRESENTATION_CONTEXT ( 'NONE', 'WORKASPACE' ) );
#120 = PERSON_AND_ORGANIZATION_ROLE ( 'design_supplier' ) ;
#121 = SECURITY_CLASSIFICATION_LEVEL ( 'unclassified' ) ;
#122 = ORIENTED_EDGE ( 'NONE', *, *, #35, .T. ) ;
#123 = PERSON_AND_ORGANIZATION_ROLE ( 'classification_officer' ) ;
#124 = AXIS2_PLACEMENT_3D ( 'NONE', #149, #1, #18 ) ;
#125 = DIRECTION ( 'NONE',  ( 0.0000000000000000000, -1.000000000000000000, 0.0000000000000000000 ) ) ;
#126 = CYLINDRICAL_SURFACE ( 'NONE', #5, 1.499999999999989786 ) ;
#127 = CARTESIAN_POINT ( 'NONE',  ( 1.018687894544877643E-14, -3.557309630806847409E-16, 2.917638090205028512 ) ) ;
#128 = APPROVAL_PERSON_ORGANIZATION ( #163, #197, #32 ) ;
#129 = FACE_OUTER_BOUND ( 'NONE', #12, .T. ) ;
#130 = AXIS2_PLACEMENT_3D ( 'NONE', #191, #227, #42 ) ;
#131 = CC_DESIGN_SECURITY_CLASSIFICATION ( #66, ( #45 ) ) ;
#132 = CARTESIAN_POINT ( 'NONE',  ( 0.0000000000000000000, 0.0000000000000000000, 0.0000000000000000000 ) ) ;
#133 = CC_DESIGN_DATE_AND_TIME_ASSIGNMENT ( #52, #203, ( #66 ) ) ;
#134 = CALENDAR_DATE ( 2021, 16, 11 ) ;
#135 = CC_DESIGN_APPROVAL ( #39, ( #216 ) ) ;
#136 = CC_DESIGN_PERSON_AND_ORGANIZATION_ASSIGNMENT ( #115, #96, ( #216 ) ) ;
#137 = LOCAL_TIME ( 16, 45, 4.000000000000000000, #114 ) ;
#138 = EDGE_LOOP ( 'NONE', ( #185 ) ) ;
#139 = TOROIDAL_SURFACE ( 'NONE', #101, 2.475000000000001421, 2.000000000000000444 ) ;
#140 = EDGE_LOOP ( 'NONE', ( #104 ) ) ;
#141 = APPROVAL_PERSON_ORGANIZATION ( #210, #39, #43 ) ;
#142 = EDGE_CURVE ( 'NONE', #176, #176, #147, .T. ) ;
#143 = PERSON_AND_ORGANIZATION ( #230, #85 ) ;
#144 = EDGE_LOOP ( 'NONE', ( #63 ) ) ;
#145 = EDGE_CURVE ( 'NONE', #159, #159, #79, .T. ) ;
#146 = PLANE ( 'NONE',  #233 ) ;
#147 = CIRCLE ( 'NONE', #95, 0.5431483474218609109 ) ;
#148 = FACE_OUTER_BOUND ( 'NONE', #144, .T. ) ;
#149 = CARTESIAN_POINT ( 'NONE',  ( -5.119414650891767315E-30, 1.787725478945373841E-31, -1.466258631812717298E-15 ) ) ;
#150 = MANIFOLD_SOLID_BREP ( 'Corps-Déplacer/Copier1[1]', #14 ) ;
#151 = DIRECTION ( 'NONE',  ( -3.491481338843133355E-15, 1.219242935835426903E-16, -1.000000000000000000 ) ) ;
#152 = LOCAL_TIME ( 16, 45, 4.000000000000000000, #51 ) ;
#153 = FACE_BOUND ( 'NONE', #28, .T. ) ;
#154 = DIRECTION ( 'NONE',  ( 4.275831445896958607E-31, 1.000000000000000000, 1.224646799147353207E-16 ) ) ;
#155 = AXIS2_PLACEMENT_3D ( 'NONE', #34, #56, #55 ) ;
#156 = DATE_AND_TIME ( #134, #162 ) ;
#157 = ADVANCED_FACE ( 'NONE', ( #13 ), #146, .F. ) ;
#158 = APPLICATION_CONTEXT ( 'configuration controlled 3d designs of mechanical parts and assemblies' ) ;
#159 = VERTEX_POINT ( 'NONE', #179 ) ;
#160 = CIRCLE ( 'NONE', #53, 1.499999999999989786 ) ;
#161 = VERTEX_POINT ( 'NONE', #24 ) ;
#162 = LOCAL_TIME ( 16, 45, 4.000000000000000000, #178 ) ;
#163 = PERSON_AND_ORGANIZATION ( #230, #85 ) ;
#164 = CIRCLE ( 'NONE', #54, 1.199999999999992184 ) ;
#165 = EDGE_LOOP ( 'NONE', ( #82 ) ) ;
#166 = ORIENTED_EDGE ( 'NONE', *, *, #173, .F. ) ;
#167 = COORDINATED_UNIVERSAL_TIME_OFFSET ( 1, 0, .AHEAD. ) ;
#168 = ORIENTED_EDGE ( 'NONE', *, *, #173, .T. ) ;
#169 = UNCERTAINTY_MEASURE_WITH_UNIT (LENGTH_MEASURE( 1.000000000000000082E-05 ), #181, 'distance_accuracy_value', 'NONE');
#170 = CARTESIAN_POINT ( 'NONE',  ( 8.379555213223516897E-15, -2.926183046005023679E-16, 2.399999999999999467 ) ) ;
#171 = DIRECTION ( 'NONE',  ( 3.491481338843133355E-15, -1.219242935835426903E-16, 1.000000000000000000 ) ) ;
#172 = PLANE ( 'NONE',  #130 ) ;
#173 = EDGE_CURVE ( 'NONE', #78, #78, #221, .T. ) ;
#174 = DIRECTION ( 'NONE',  ( 0.0000000000000000000, -1.000000000000000000, 0.0000000000000000000 ) ) ;
#175 = CARTESIAN_POINT ( 'NONE',  ( 2.265502508429786976E-14, -7.911249299232065845E-16, 6.488657072932941361 ) ) ;
#176 = VERTEX_POINT ( 'NONE', #116 ) ;
#177 = EDGE_CURVE ( 'NONE', #161, #161, #164, .T. ) ;
#178 = COORDINATED_UNIVERSAL_TIME_OFFSET ( 1, 0, .AHEAD. ) ;
#179 = CARTESIAN_POINT ( 'NONE',  ( -5.321620438896088590E-30, -0.4750000000000005884, -1.524172671264900189E-15 ) ) ;
#180 = VERTEX_POINT ( 'NONE', #6 ) ;
#181 =( LENGTH_UNIT ( ) NAMED_UNIT ( * ) SI_UNIT ( .MILLI., .METRE. ) );
#182 = PERSON_AND_ORGANIZATION ( #230, #85 ) ;
#183 = EDGE_LOOP ( 'NONE', ( #235 ) ) ;
#184 = LOCAL_TIME ( 16, 45, 4.000000000000000000, #61 ) ;
#185 = ORIENTED_EDGE ( 'NONE', *, *, #49, .F. ) ;
#186 = CC_DESIGN_DATE_AND_TIME_ASSIGNMENT ( #156, #229, ( #216 ) ) ;
#187 = EDGE_LOOP ( 'NONE', ( #122 ) ) ;
#188 = AXIS2_PLACEMENT_3D ( 'NONE', #15, #88, #242 ) ;
#189 = ADVANCED_FACE ( 'NONE', ( #36, #17 ), #109, .T. ) ;
#190 = DIRECTION ( 'NONE',  ( -3.491481338843133355E-15, 1.224646799147353207E-16, -1.000000000000000000 ) ) ;
#191 = CARTESIAN_POINT ( 'NONE',  ( -2.137917073001454058E-30, 7.498803648657679327E-32, -6.123237862442165323E-16 ) ) ;
#192 = DIRECTION ( 'NONE',  ( 4.275831445896959482E-31, 1.000000000000000000, 1.224646799147353207E-16 ) ) ;
#193 = DIRECTION ( 'NONE',  ( -4.316305397992992729E-31, -1.000000000000000000, -1.219242935835426903E-16 ) ) ;
#194 = DIRECTION ( 'NONE',  ( 0.0000000000000000000, -1.000000000000000000, 0.0000000000000000000 ) ) ;
#195 = AXIS2_PLACEMENT_3D ( 'NONE', #68, #190, #220 ) ;
#196 = APPROVAL_STATUS ( 'not_yet_approved' ) ;
#197 = APPROVAL ( #200, 'UNSPECIFIED' ) ;
#198 = DATE_AND_TIME ( #80, #184 ) ;
#199 = ORIENTED_EDGE ( 'NONE', *, *, #177, .T. ) ;
#200 = APPROVAL_STATUS ( 'not_yet_approved' ) ;
#201 = EDGE_LOOP ( 'NONE', ( #8 ) ) ;
#202 = CIRCLE ( 'NONE', #155, 0.4750000000000004219 ) ;
#203 = DATE_TIME_ROLE ( 'classification_date' ) ;
#204 = ADVANCED_FACE ( 'NONE', ( #222, #71 ), #126, .T. ) ;
#205 = CARTESIAN_POINT ( 'NONE',  ( 3.568541083453940072E-14, -1.246152588253944218E-15, 10.22070788050191936 ) ) ;
#206 = DIRECTION ( 'NONE',  ( 0.0000000000000000000, -1.000000000000000000, 0.0000000000000000000 ) ) ;
#207 = DIRECTION ( 'NONE',  ( -3.491481338843133355E-15, 1.224646799147353207E-16, -1.000000000000000000 ) ) ;
#208 = DIRECTION ( 'NONE',  ( -4.275831445896958607E-31, -1.000000000000000000, -1.224646799147353207E-16 ) ) ;
#209 = DIRECTION ( 'NONE',  ( 3.491481338843133355E-15, -1.219242935835426903E-16, 1.000000000000000000 ) ) ;
#210 = PERSON_AND_ORGANIZATION ( #230, #85 ) ;
#211 = APPLICATION_PROTOCOL_DEFINITION ( 'international standard', 'config_control_design', 1994, #92 ) ;
#212 = PERSON_AND_ORGANIZATION_ROLE ( 'design_owner' ) ;
#213 = DIRECTION ( 'NONE',  ( -3.491481338843133355E-15, 1.224646799147353207E-16, -1.000000000000000000 ) ) ;
#214 = CARTESIAN_POINT ( 'NONE',  ( 1.326762908760390170E-13, 8.998558695971017012E-33, 37.99999999999999289 ) ) ;
#215 = LOCAL_TIME ( 16, 45, 4.000000000000000000, #167 ) ;
#216 = PRODUCT_DEFINITION ( 'UNKNOWN', '', #45, #87 ) ;
#217 = DATE_AND_TIME ( #100, #215 ) ;
#218 = PERSON_AND_ORGANIZATION ( #230, #85 ) ;
#219 = ORIENTED_EDGE ( 'NONE', *, *, #145, .T. ) ;
#220 = DIRECTION ( 'NONE',  ( 0.0000000000000000000, 1.000000000000000000, 0.0000000000000000000 ) ) ;
#221 = CIRCLE ( 'NONE', #20, 0.4750000000000004219 ) ;
#222 = FACE_OUTER_BOUND ( 'NONE', #165, .T. ) ;
#223 = CARTESIAN_POINT ( 'NONE',  ( 8.379555213223518475E-15, 1.124819836996383764E-32, 2.399999999999999911 ) ) ;
#224 = FACE_OUTER_BOUND ( 'NONE', #140, .T. ) ;
#225 = AXIS2_PLACEMENT_3D ( 'NONE', #214, #213, #154 ) ;
#226 = ADVANCED_FACE ( 'NONE', ( #3 ), #117, .F. ) ;
#227 = DIRECTION ( 'NONE',  ( 3.491481338843133355E-15, -1.224646799147353207E-16, 1.000000000000000000 ) ) ;
#228 = ADVANCED_BREP_SHAPE_REPRESENTATION ( '966129', ( #150, #232, #105 ), #119 ) ;
#229 = DATE_TIME_ROLE ( 'creation_date' ) ;
#230 = PERSON ( 'UNSPECIFIED', 'UNSPECIFIED', 'UNSPECIFIED', ('UNSPECIFIED'), ('UNSPECIFIED'), ('UNSPECIFIED') ) ;
#231 = APPROVAL_ROLE ( '' ) ;
#232 = MANIFOLD_SOLID_BREP ( 'Corps-Déplacer/Copier1[2]', #62 ) ;
#233 = AXIS2_PLACEMENT_3D ( 'NONE', #223, #86, #208 ) ;
#234 = ORIENTED_EDGE ( 'NONE', *, *, #177, .F. ) ;
#235 = ORIENTED_EDGE ( 'NONE', *, *, #145, .F. ) ;
#236 = ORIENTED_EDGE ( 'NONE', *, *, #142, .T. ) ;
#237 = APPROVAL ( #97, 'UNSPECIFIED' ) ;
#238 = PERSON_AND_ORGANIZATION_ROLE ( 'creator' ) ;
#239 = EDGE_LOOP ( 'NONE', ( #219 ) ) ;
#240 = AXIS2_PLACEMENT_3D ( 'NONE', #41, #58, #2 ) ;
#241 = DIRECTION ( 'NONE',  ( 0.0000000000000000000, 1.000000000000000000, 0.0000000000000000000 ) ) ;
#242 = DIRECTION ( 'NONE',  ( -4.256963957985708889E-31, -1.000000000000000000, -1.219242935835426656E-16 ) ) ;
#243 = DIRECTION ( 'NONE',  ( 3.491481338843133355E-15, -1.219242935835426903E-16, 1.000000000000000000 ) ) ;
ENDSEC;
END-ISO-10303-21;
