ISO-10303-21;
HEADER;
FILE_DESCRIPTION (( 'STEP AP203' ),
    '1' );
FILE_NAME ('966128.step',
    '2021-11-16T15:45:04',
    ( '' ),
    ( '' ),
    'SwSTEP 2.0',
    'SolidWorks 2019',
    '' );
FILE_SCHEMA (( 'CONFIG_CONTROL_DESIGN' ));
ENDSEC;

DATA;
#1 =( LENGTH_UNIT ( ) NAMED_UNIT ( * ) SI_UNIT ( .MILLI., .METRE. ) );
#2 = DIRECTION ( 'NONE',  ( 3.491481338843133355E-15, -1.224646799147353207E-16, 1.000000000000000000 ) ) ;
#3 = DIRECTION ( 'NONE',  ( -3.491481338843133355E-15, 1.224646799147353207E-16, -1.000000000000000000 ) ) ;
#4 = CARTESIAN_POINT ( 'NONE',  ( -5.300335619106159813E-30, -0.4499999999999999001, -1.518076456585722887E-15 ) ) ;
#5 = CIRCLE ( 'NONE', #148, 0.4499999999999997335 ) ;
#6 = DIRECTION ( 'NONE',  ( 0.0000000000000000000, 0.0000000000000000000, 1.000000000000000000 ) ) ;
#7 = DIRECTION ( 'NONE',  ( 1.000000000000000000, 0.0000000000000000000, 0.0000000000000000000 ) ) ;
#8 = EDGE_LOOP ( 'NONE', ( #17 ) ) ;
#9 = AXIS2_PLACEMENT_3D ( 'NONE', #62, #206, #39 ) ;
#10 = CIRCLE ( 'NONE', #109, 0.4499999999999997335 ) ;
#11 = ORIENTED_EDGE ( 'NONE', *, *, #55, .F. ) ;
#12 = APPROVAL ( #98, 'UNSPECIFIED' ) ;
#13 = CALENDAR_DATE ( 2021, 16, 11 ) ;
#14 = ORIENTED_EDGE ( 'NONE', *, *, #16, .F. ) ;
#15 = FACE_OUTER_BOUND ( 'NONE', #106, .T. ) ;
#16 = EDGE_CURVE ( 'NONE', #225, #225, #223, .T. ) ;
#17 = ORIENTED_EDGE ( 'NONE', *, *, #30, .F. ) ;
#18 = CONICAL_SURFACE ( 'NONE', #235, 1.199999999999992184, 0.7853981633974338461 ) ;
#19 = DIRECTION ( 'NONE',  ( -4.256963957985708889E-31, -1.000000000000000000, -1.219242935835426656E-16 ) ) ;
#20 = FACE_OUTER_BOUND ( 'NONE', #192, .T. ) ;
#21 = CLOSED_SHELL ( 'NONE', ( #153, #24, #240 ) ) ;
#22 = DIRECTION ( 'NONE',  ( 3.491481338843133355E-15, -1.224646799147353207E-16, 1.000000000000000000 ) ) ;
#23 = AXIS2_PLACEMENT_3D ( 'NONE', #190, #22, #172 ) ;
#24 = ADVANCED_FACE ( 'NONE', ( #201, #120 ), #31, .T. ) ;
#25 = DIRECTION ( 'NONE',  ( -4.275831445896958607E-31, -1.000000000000000000, -1.224646799147353207E-16 ) ) ;
#26 = ORIENTED_EDGE ( 'NONE', *, *, #30, .T. ) ;
#27 = PRODUCT_DEFINITION_SHAPE ( 'NONE', 'NONE',  #83 ) ;
#28 = PERSON_AND_ORGANIZATION ( #154, #129 ) ;
#29 = ADVANCED_BREP_SHAPE_REPRESENTATION ( '966128', ( #80, #82, #102 ), #156 ) ;
#30 = EDGE_CURVE ( 'NONE', #173, #173, #107, .T. ) ;
#31 = CYLINDRICAL_SURFACE ( 'NONE', #94, 0.4499999999999997891 ) ;
#32 = CLOSED_SHELL ( 'NONE', ( #51, #91, #212, #170, #37, #202 ) ) ;
#33 = APPLICATION_CONTEXT ( 'configuration controlled 3d designs of mechanical parts and assemblies' ) ;
#34 = AXIS2_PLACEMENT_3D ( 'NONE', #90, #241, #35 ) ;
#35 = DIRECTION ( 'NONE',  ( 0.0000000000000000000, -1.000000000000000000, 0.0000000000000000000 ) ) ;
#36 = CARTESIAN_POINT ( 'NONE',  ( 2.245706252722745058E-14, -7.842119773439441986E-16, 6.431958343122169630 ) ) ;
#37 = ADVANCED_FACE ( 'NONE', ( #105, #185 ), #85, .F. ) ;
#38 = VERTEX_POINT ( 'NONE', #41 ) ;
#39 = DIRECTION ( 'NONE',  ( 4.275831445896958607E-31, 1.000000000000000000, 1.224646799147353207E-16 ) ) ;
#40 = AXIS2_PLACEMENT_3D ( 'NONE', #76, #2, #25 ) ;
#41 = CARTESIAN_POINT ( 'NONE',  ( 7.855833012397048472E-15, -0.4500000000000000111, 2.249999999999999556 ) ) ;
#42 = CARTESIAN_POINT ( 'NONE',  ( 1.326762908760390170E-13, 1.199999999999987521, 37.99999999999999289 ) ) ;
#43 = PERSON_AND_ORGANIZATION ( #154, #129 ) ;
#44 = EDGE_LOOP ( 'NONE', ( #46 ) ) ;
#45 = CALENDAR_DATE ( 2021, 16, 11 ) ;
#46 = ORIENTED_EDGE ( 'NONE', *, *, #122, .F. ) ;
#47 = CONICAL_SURFACE ( 'NONE', #60, 2.499999999999991118, 0.2617993877991429685 ) ;
#48 = APPLICATION_CONTEXT ( 'configuration controlled 3d designs of mechanical parts and assemblies' ) ;
#49 = PERSON_AND_ORGANIZATION_ROLE ( 'design_supplier' ) ;
#50 = PERSON_AND_ORGANIZATION ( #154, #129 ) ;
#51 = ADVANCED_FACE ( 'NONE', ( #144, #15 ), #149, .T. ) ;
#52 = COORDINATED_UNIVERSAL_TIME_OFFSET ( 1, 0, .AHEAD. ) ;
#53 = ORIENTED_EDGE ( 'NONE', *, *, #233, .F. ) ;
#54 = DIRECTION ( 'NONE',  ( -3.491481338843133355E-15, 1.224646799147353207E-16, -1.000000000000000000 ) ) ;
#55 = EDGE_CURVE ( 'NONE', #59, #59, #66, .T. ) ;
#56 = DIRECTION ( 'NONE',  ( 0.0000000000000000000, 1.000000000000000000, 0.0000000000000000000 ) ) ;
#57 =( NAMED_UNIT ( * ) PLANE_ANGLE_UNIT ( ) SI_UNIT ( $, .RADIAN. ) );
#58 = CARTESIAN_POINT ( 'NONE',  ( 7.855833012397050049E-15, 1.124819836996383764E-32, 2.250000000000000000 ) ) ;
#59 = VERTEX_POINT ( 'NONE', #204 ) ;
#60 = AXIS2_PLACEMENT_3D ( 'NONE', #226, #124, #95 ) ;
#61 = FACE_OUTER_BOUND ( 'NONE', #112, .T. ) ;
#62 = CARTESIAN_POINT ( 'NONE',  ( 1.326762908760390170E-13, 8.998558695971017012E-33, 37.99999999999999289 ) ) ;
#63 = DATE_AND_TIME ( #138, #166 ) ;
#64 = EDGE_LOOP ( 'NONE', ( #14 ) ) ;
#65 = PERSON_AND_ORGANIZATION ( #154, #129 ) ;
#66 = CIRCLE ( 'NONE', #218, 1.499999999999989786 ) ;
#67 = MECHANICAL_CONTEXT ( 'NONE', #33, 'mechanical' ) ;
#68 = EDGE_LOOP ( 'NONE', ( #26 ) ) ;
#69 = CC_DESIGN_APPROVAL ( #217, ( #187 ) ) ;
#70 = DIRECTION ( 'NONE',  ( -3.491481338843133355E-15, 1.224646799147353207E-16, -1.000000000000000000 ) ) ;
#71 = LOCAL_TIME ( 16, 45, 4.000000000000000000, #81 ) ;
#72 = EDGE_LOOP ( 'NONE', ( #99 ) ) ;
#73 = FACE_OUTER_BOUND ( 'NONE', #207, .T. ) ;
#74 = CARTESIAN_POINT ( 'NONE',  ( 7.855833012397048472E-15, -2.743296605629709545E-16, 2.249999999999999556 ) ) ;
#75 = DIRECTION ( 'NONE',  ( 0.0000000000000000000, 1.000000000000000000, 0.0000000000000000000 ) ) ;
#76 = CARTESIAN_POINT ( 'NONE',  ( -2.137917073001454058E-30, 7.498803648657679327E-32, -6.123237862442165323E-16 ) ) ;
#77 = CC_DESIGN_APPROVAL ( #163, ( #116 ) ) ;
#78 = DIRECTION ( 'NONE',  ( 0.0000000000000000000, -1.000000000000000000, 0.0000000000000000000 ) ) ;
#79 = CALENDAR_DATE ( 2021, 16, 11 ) ;
#80 = MANIFOLD_SOLID_BREP ( 'Corps-Déplacer/Copier1[1]', #32 ) ;
#81 = COORDINATED_UNIVERSAL_TIME_OFFSET ( 1, 0, .AHEAD. ) ;
#82 = MANIFOLD_SOLID_BREP ( 'Corps-Déplacer/Copier1[2]', #21 ) ;
#83 = PRODUCT_DEFINITION ( 'UNKNOWN', '', #187, #137 ) ;
#84 = DATE_TIME_ROLE ( 'creation_date' ) ;
#85 = TOROIDAL_SURFACE ( 'NONE', #242, 2.450000000000000622, 2.000000000000000444 ) ;
#86 = PERSON_AND_ORGANIZATION ( #154, #129 ) ;
#87 = CARTESIAN_POINT ( 'NONE',  ( -5.108772240996802927E-30, 1.784009095603912282E-31, -1.463210524473128745E-15 ) ) ;
#88 = LOCAL_TIME ( 16, 45, 4.000000000000000000, #215 ) ;
#89 = FACE_OUTER_BOUND ( 'NONE', #162, .T. ) ;
#90 = CARTESIAN_POINT ( 'NONE',  ( 9.663156744622306430E-15, -3.374423190431533275E-16, 2.767638090205028600 ) ) ;
#91 = ADVANCED_FACE ( 'NONE', ( #89, #104 ), #18, .T. ) ;
#92 = CC_DESIGN_APPROVAL ( #12, ( #83 ) ) ;
#93 = DIRECTION ( 'NONE',  ( -4.316638776869437357E-31, -1.000000000000000000, -1.219242935835426903E-16 ) ) ;
#94 = AXIS2_PLACEMENT_3D ( 'NONE', #243, #146, #19 ) ;
#95 = DIRECTION ( 'NONE',  ( 0.0000000000000000000, -1.000000000000000000, 0.0000000000000000000 ) ) ;
#96 = PLANE ( 'NONE',  #9 ) ;
#97 =( NAMED_UNIT ( * ) SI_UNIT ( $, .STERADIAN. ) SOLID_ANGLE_UNIT ( ) );
#98 = APPROVAL_STATUS ( 'not_yet_approved' ) ;
#99 = ORIENTED_EDGE ( 'NONE', *, *, #150, .F. ) ;
#100 = APPROVAL_DATE_TIME ( #198, #163 ) ;
#101 = CARTESIAN_POINT ( 'NONE',  ( 0.0000000000000000000, 0.0000000000000000000, 0.0000000000000000000 ) ) ;
#102 = AXIS2_PLACEMENT_3D ( 'NONE', #101, #6, #7 ) ;
#103 = UNCERTAINTY_MEASURE_WITH_UNIT (LENGTH_MEASURE( 1.000000000000000082E-05 ), #1, 'distance_accuracy_value', 'NONE');
#104 = FACE_BOUND ( 'NONE', #211, .T. ) ;
#105 = FACE_OUTER_BOUND ( 'NONE', #219, .T. ) ;
#106 = EDGE_LOOP ( 'NONE', ( #11 ) ) ;
#107 = CIRCLE ( 'NONE', #34, 0.5181483474218602225 ) ;
#108 = VERTEX_POINT ( 'NONE', #222 ) ;
#109 = AXIS2_PLACEMENT_3D ( 'NONE', #74, #231, #78 ) ;
#110 = AXIS2_PLACEMENT_3D ( 'NONE', #147, #70, #167 ) ;
#111 = DIRECTION ( 'NONE',  ( 3.491481338843133355E-15, -1.224646799147353207E-16, 1.000000000000000000 ) ) ;
#112 = EDGE_LOOP ( 'NONE', ( #140 ) ) ;
#113 = PERSON_AND_ORGANIZATION ( #154, #129 ) ;
#114 = DATE_TIME_ROLE ( 'classification_date' ) ;
#115 = ORIENTED_EDGE ( 'NONE', *, *, #233, .T. ) ;
#116 = SECURITY_CLASSIFICATION ( '', '', #236 ) ;
#117 = EDGE_CURVE ( 'NONE', #108, #108, #5, .T. ) ;
#118 = CARTESIAN_POINT ( 'NONE',  ( 0.0000000000000000000, 0.0000000000000000000, 0.0000000000000000000 ) ) ;
#119 = AXIS2_PLACEMENT_3D ( 'NONE', #118, #203, #216 ) ;
#120 = FACE_OUTER_BOUND ( 'NONE', #72, .T. ) ;
#121 = CARTESIAN_POINT ( 'NONE',  ( 7.855833012397048472E-15, -4.336808689942017736E-16, 2.249999999999999556 ) ) ;
#122 = EDGE_CURVE ( 'NONE', #205, #205, #194, .T. ) ;
#123 = LOCAL_TIME ( 16, 45, 4.000000000000000000, #213 ) ;
#124 = DIRECTION ( 'NONE',  ( 3.491481338843133355E-15, -1.219242935835426903E-16, 1.000000000000000000 ) ) ;
#125 = VERTEX_POINT ( 'NONE', #175 ) ;
#126 = CC_DESIGN_DATE_AND_TIME_ASSIGNMENT ( #132, #114, ( #116 ) ) ;
#127 = DIRECTION ( 'NONE',  ( -4.275831445896958607E-31, -1.000000000000000000, -1.224646799147353207E-16 ) ) ;
#128 = ORIENTED_EDGE ( 'NONE', *, *, #122, .T. ) ;
#129 = ORGANIZATION ( 'UNSPECIFIED', 'UNSPECIFIED', '' ) ;
#130 = CARTESIAN_POINT ( 'NONE',  ( 1.316288464743860707E-13, -4.616918432785519503E-15, 37.69999999999998153 ) ) ;
#131 = PLANE ( 'NONE',  #40 ) ;
#132 = DATE_AND_TIME ( #13, #160 ) ;
#133 = AXIS2_PLACEMENT_3D ( 'NONE', #130, #3, #75 ) ;
#134 = APPROVAL_DATE_TIME ( #177, #12 ) ;
#135 = APPROVAL_ROLE ( '' ) ;
#136 = ORIENTED_EDGE ( 'NONE', *, *, #16, .T. ) ;
#137 = DESIGN_CONTEXT ( 'detailed design', #48, 'design' ) ;
#138 = CALENDAR_DATE ( 2021, 16, 11 ) ;
#139 = CC_DESIGN_PERSON_AND_ORGANIZATION_ASSIGNMENT ( #50, #164, ( #83 ) ) ;
#140 = ORIENTED_EDGE ( 'NONE', *, *, #55, .T. ) ;
#141 = APPLICATION_PROTOCOL_DEFINITION ( 'international standard', 'config_control_design', 1994, #48 ) ;
#142 = CC_DESIGN_SECURITY_CLASSIFICATION ( #116, ( #187 ) ) ;
#143 = PRODUCT ( '966128', '966128', '', ( #67 ) ) ;
#144 = FACE_OUTER_BOUND ( 'NONE', #174, .T. ) ;
#145 = CC_DESIGN_PERSON_AND_ORGANIZATION_ASSIGNMENT ( #234, #49, ( #187 ) ) ;
#146 = DIRECTION ( 'NONE',  ( 3.491481338843133355E-15, -1.219242935835426903E-16, 1.000000000000000000 ) ) ;
#147 = CARTESIAN_POINT ( 'NONE',  ( 1.326762908760390170E-13, -4.653657836759941152E-15, 37.99999999999999289 ) ) ;
#148 = AXIS2_PLACEMENT_3D ( 'NONE', #184, #168, #182 ) ;
#149 = CYLINDRICAL_SURFACE ( 'NONE', #119, 1.499999999999989786 ) ;
#150 = EDGE_CURVE ( 'NONE', #38, #38, #10, .T. ) ;
#151 = ORIENTED_EDGE ( 'NONE', *, *, #117, .T. ) ;
#152 = DIRECTION ( 'NONE',  ( 3.491481338843133355E-15, -1.219242935835426903E-16, 1.000000000000000000 ) ) ;
#153 = ADVANCED_FACE ( 'NONE', ( #73 ), #229, .T. ) ;
#154 = PERSON ( 'UNSPECIFIED', 'UNSPECIFIED', 'UNSPECIFIED', ('UNSPECIFIED'), ('UNSPECIFIED'), ('UNSPECIFIED') ) ;
#155 = DIRECTION ( 'NONE',  ( -4.256963957985710640E-31, -1.000000000000000000, -1.219242935835426903E-16 ) ) ;
#156 =( GEOMETRIC_REPRESENTATION_CONTEXT ( 3 ) GLOBAL_UNCERTAINTY_ASSIGNED_CONTEXT ( ( #103 ) ) GLOBAL_UNIT_ASSIGNED_CONTEXT ( ( #1, #57, #97 ) ) REPRESENTATION_CONTEXT ( 'NONE', 'WORKASPACE' ) );
#157 = DATE_AND_TIME ( #79, #71 ) ;
#158 = CC_DESIGN_PERSON_AND_ORGANIZATION_ASSIGNMENT ( #65, #178, ( #143 ) ) ;
#159 = PERSON_AND_ORGANIZATION_ROLE ( 'creator' ) ;
#160 = LOCAL_TIME ( 16, 45, 4.000000000000000000, #52 ) ;
#161 = APPROVAL_STATUS ( 'not_yet_approved' ) ;
#162 = EDGE_LOOP ( 'NONE', ( #53 ) ) ;
#163 = APPROVAL ( #161, 'UNSPECIFIED' ) ;
#164 = PERSON_AND_ORGANIZATION_ROLE ( 'creator' ) ;
#165 = APPROVAL_ROLE ( '' ) ;
#166 = LOCAL_TIME ( 16, 45, 4.000000000000000000, #210 ) ;
#167 = DIRECTION ( 'NONE',  ( 0.0000000000000000000, 1.000000000000000000, 0.0000000000000000000 ) ) ;
#168 = DIRECTION ( 'NONE',  ( 3.491481338843133355E-15, -1.219242935835426903E-16, 1.000000000000000000 ) ) ;
#169 = APPROVAL_PERSON_ORGANIZATION ( #86, #12, #135 ) ;
#170 = ADVANCED_FACE ( 'NONE', ( #189, #61 ), #47, .T. ) ;
#171 = APPLICATION_PROTOCOL_DEFINITION ( 'international standard', 'config_control_design', 1994, #33 ) ;
#172 = DIRECTION ( 'NONE',  ( -4.275831445896958607E-31, -1.000000000000000000, -1.224646799147353207E-16 ) ) ;
#173 = VERTEX_POINT ( 'NONE', #208 ) ;
#174 = EDGE_LOOP ( 'NONE', ( #115 ) ) ;
#175 = CARTESIAN_POINT ( 'NONE',  ( 1.316288464743860707E-13, 1.499999999999987566, 37.69999999999998153 ) ) ;
#176 = PERSON_AND_ORGANIZATION_ROLE ( 'classification_officer' ) ;
#177 = DATE_AND_TIME ( #232, #123 ) ;
#178 = PERSON_AND_ORGANIZATION_ROLE ( 'design_owner' ) ;
#179 = CC_DESIGN_PERSON_AND_ORGANIZATION_ASSIGNMENT ( #113, #176, ( #116 ) ) ;
#180 = SHAPE_DEFINITION_REPRESENTATION ( #27, #29 ) ;
#181 = APPROVAL_DATE_TIME ( #63, #217 ) ;
#182 = DIRECTION ( 'NONE',  ( 0.0000000000000000000, -1.000000000000000000, 0.0000000000000000000 ) ) ;
#183 = APPROVAL_PERSON_ORGANIZATION ( #28, #217, #196 ) ;
#184 = CARTESIAN_POINT ( 'NONE',  ( 7.855833012397048472E-15, -2.743296605629709545E-16, 2.249999999999999556 ) ) ;
#185 = FACE_OUTER_BOUND ( 'NONE', #8, .T. ) ;
#186 = PRODUCT_RELATED_PRODUCT_CATEGORY ( 'detail', '', ( #143 ) ) ;
#187 = PRODUCT_DEFINITION_FORMATION_WITH_SPECIFIED_SOURCE ( 'ANY', '', #143, .NOT_KNOWN. ) ;
#188 = CC_DESIGN_DATE_AND_TIME_ASSIGNMENT ( #157, #84, ( #83 ) ) ;
#189 = FACE_BOUND ( 'NONE', #68, .T. ) ;
#190 = CARTESIAN_POINT ( 'NONE',  ( 7.855833012397050049E-15, 1.124819836996383764E-32, 2.250000000000000000 ) ) ;
#191 = FACE_OUTER_BOUND ( 'NONE', #64, .T. ) ;
#192 = EDGE_LOOP ( 'NONE', ( #227 ) ) ;
#193 = FACE_OUTER_BOUND ( 'NONE', #44, .T. ) ;
#194 = CIRCLE ( 'NONE', #197, 0.4499999999999999001 ) ;
#195 = PERSON_AND_ORGANIZATION ( #154, #129 ) ;
#196 = APPROVAL_ROLE ( '' ) ;
#197 = AXIS2_PLACEMENT_3D ( 'NONE', #87, #152, #155 ) ;
#198 = DATE_AND_TIME ( #45, #88 ) ;
#199 = APPROVAL_PERSON_ORGANIZATION ( #43, #163, #165 ) ;
#200 = DIRECTION ( 'NONE',  ( 3.491481338843133355E-15, -1.219242935835426903E-16, 1.000000000000000000 ) ) ;
#201 = FACE_OUTER_BOUND ( 'NONE', #228, .T. ) ;
#202 = ADVANCED_FACE ( 'NONE', ( #20 ), #209, .F. ) ;
#203 = DIRECTION ( 'NONE',  ( -3.491481338843133355E-15, 1.224646799147353207E-16, -1.000000000000000000 ) ) ;
#204 = CARTESIAN_POINT ( 'NONE',  ( 2.245706252722745058E-14, -1.499999999999990674, 6.431958343122169630 ) ) ;
#205 = VERTEX_POINT ( 'NONE', #4 ) ;
#206 = DIRECTION ( 'NONE',  ( -3.491481338843133355E-15, 1.224646799147353207E-16, -1.000000000000000000 ) ) ;
#207 = EDGE_LOOP ( 'NONE', ( #221 ) ) ;
#208 = CARTESIAN_POINT ( 'NONE',  ( 9.663156744622306430E-15, -0.5181483474218605556, 2.767638090205028600 ) ) ;
#209 = PLANE ( 'NONE',  #237 ) ;
#210 = COORDINATED_UNIVERSAL_TIME_OFFSET ( 1, 0, .AHEAD. ) ;
#211 = EDGE_LOOP ( 'NONE', ( #136 ) ) ;
#212 = ADVANCED_FACE ( 'NONE', ( #191 ), #96, .F. ) ;
#213 = COORDINATED_UNIVERSAL_TIME_OFFSET ( 1, 0, .AHEAD. ) ;
#214 = APPROVAL_STATUS ( 'not_yet_approved' ) ;
#215 = COORDINATED_UNIVERSAL_TIME_OFFSET ( 1, 0, .AHEAD. ) ;
#216 = DIRECTION ( 'NONE',  ( 4.275831445896959482E-31, 1.000000000000000000, 1.224646799147353207E-16 ) ) ;
#217 = APPROVAL ( #214, 'UNSPECIFIED' ) ;
#218 = AXIS2_PLACEMENT_3D ( 'NONE', #36, #220, #238 ) ;
#219 = EDGE_LOOP ( 'NONE', ( #151 ) ) ;
#220 = DIRECTION ( 'NONE',  ( -3.491481338843133355E-15, 1.219242935835426903E-16, -1.000000000000000000 ) ) ;
#221 = ORIENTED_EDGE ( 'NONE', *, *, #150, .T. ) ;
#222 = CARTESIAN_POINT ( 'NONE',  ( 7.855833012397048472E-15, -0.4500000000000000111, 2.249999999999999556 ) ) ;
#223 = CIRCLE ( 'NONE', #110, 1.199999999999992184 ) ;
#224 = CC_DESIGN_PERSON_AND_ORGANIZATION_ASSIGNMENT ( #195, #159, ( #187 ) ) ;
#225 = VERTEX_POINT ( 'NONE', #42 ) ;
#226 = CARTESIAN_POINT ( 'NONE',  ( 3.548744827746898784E-14, -1.239239635674681832E-15, 10.16400915069114674 ) ) ;
#227 = ORIENTED_EDGE ( 'NONE', *, *, #117, .F. ) ;
#228 = EDGE_LOOP ( 'NONE', ( #128 ) ) ;
#229 = PLANE ( 'NONE',  #23 ) ;
#230 = CIRCLE ( 'NONE', #133, 1.499999999999992006 ) ;
#231 = DIRECTION ( 'NONE',  ( 3.491481338843133355E-15, -1.219242935835426903E-16, 1.000000000000000000 ) ) ;
#232 = CALENDAR_DATE ( 2021, 16, 11 ) ;
#233 = EDGE_CURVE ( 'NONE', #125, #125, #230, .T. ) ;
#234 = PERSON_AND_ORGANIZATION ( #154, #129 ) ;
#235 = AXIS2_PLACEMENT_3D ( 'NONE', #239, #54, #56 ) ;
#236 = SECURITY_CLASSIFICATION_LEVEL ( 'unclassified' ) ;
#237 = AXIS2_PLACEMENT_3D ( 'NONE', #58, #111, #127 ) ;
#238 = DIRECTION ( 'NONE',  ( 0.0000000000000000000, -1.000000000000000000, 0.0000000000000000000 ) ) ;
#239 = CARTESIAN_POINT ( 'NONE',  ( 1.326762908760390170E-13, -4.653657836759941152E-15, 37.99999999999999289 ) ) ;
#240 = ADVANCED_FACE ( 'NONE', ( #193 ), #131, .F. ) ;
#241 = DIRECTION ( 'NONE',  ( 3.491481338843133355E-15, -1.219242935835426903E-16, 1.000000000000000000 ) ) ;
#242 = AXIS2_PLACEMENT_3D ( 'NONE', #121, #200, #93 ) ;
#243 = CARTESIAN_POINT ( 'NONE',  ( 0.0000000000000000000, 0.0000000000000000000, 0.0000000000000000000 ) ) ;
ENDSEC;
END-ISO-10303-21;
