ISO-10303-21;
HEADER;
FILE_DESCRIPTION (( 'STEP AP203' ),
    '1' );
FILE_NAME ('966127.step',
    '2021-11-16T15:45:03',
    ( '' ),
    ( '' ),
    'SwSTEP 2.0',
    'SolidWorks 2019',
    '' );
FILE_SCHEMA (( 'CONFIG_CONTROL_DESIGN' ));
ENDSEC;

DATA;
#1 = FACE_OUTER_BOUND ( 'NONE', #177, .T. ) ;
#2 = FACE_OUTER_BOUND ( 'NONE', #70, .T. ) ;
#3 = CARTESIAN_POINT ( 'NONE',  ( 0.0000000000000000000, 0.0000000000000000000, 0.0000000000000000000 ) ) ;
#4 = DIRECTION ( 'NONE',  ( 3.491481338843133355E-15, -1.219242935835426903E-16, 1.000000000000000000 ) ) ;
#5 = CALENDAR_DATE ( 2021, 16, 11 ) ;
#6 = APPROVAL_ROLE ( '' ) ;
#7 = TOROIDAL_SURFACE ( 'NONE', #12, 2.425000000000000266, 2.000000000000000000 ) ;
#8 = VERTEX_POINT ( 'NONE', #98 ) ;
#9 = ORIENTED_EDGE ( 'NONE', *, *, #200, .T. ) ;
#10 = APPROVAL_DATE_TIME ( #128, #208 ) ;
#11 = CARTESIAN_POINT ( 'NONE',  ( 7.506684878512735136E-15, -2.621372312046167446E-16, 2.149999999999999467 ) ) ;
#12 = AXIS2_PLACEMENT_3D ( 'NONE', #167, #112, #89 ) ;
#13 = COORDINATED_UNIVERSAL_TIME_OFFSET ( 1, 0, .AHEAD. ) ;
#14 = COORDINATED_UNIVERSAL_TIME_OFFSET ( 1, 0, .AHEAD. ) ;
#15 = EDGE_LOOP ( 'NONE', ( #101 ) ) ;
#16 = MANIFOLD_SOLID_BREP ( 'Corps-Déplacer/Copier1[1]', #80 ) ;
#17 = FACE_OUTER_BOUND ( 'NONE', #240, .T. ) ;
#18 = LOCAL_TIME ( 16, 45, 3.000000000000000000, #14 ) ;
#19 = DIRECTION ( 'NONE',  ( 3.491481338843133355E-15, -1.219242935835426903E-16, 1.000000000000000000 ) ) ;
#20 = DIRECTION ( 'NONE',  ( -4.256963957985708889E-31, -1.000000000000000000, -1.219242935835426903E-16 ) ) ;
#21 = APPROVAL ( #172, 'UNSPECIFIED' ) ;
#22 = DIRECTION ( 'NONE',  ( 3.491481338843133355E-15, -1.224646799147353207E-16, 1.000000000000000000 ) ) ;
#23 = FACE_OUTER_BOUND ( 'NONE', #216, .T. ) ;
#24 = AXIS2_PLACEMENT_3D ( 'NONE', #25, #130, #171 ) ;
#25 = CARTESIAN_POINT ( 'NONE',  ( 0.0000000000000000000, 0.0000000000000000000, 0.0000000000000000000 ) ) ;
#26 = DIRECTION ( 'NONE',  ( 0.0000000000000000000, -1.000000000000000000, 0.0000000000000000000 ) ) ;
#27 = DATE_TIME_ROLE ( 'creation_date' ) ;
#28 = ORIENTED_EDGE ( 'NONE', *, *, #200, .F. ) ;
#29 = APPROVAL_ROLE ( '' ) ;
#30 = CARTESIAN_POINT ( 'NONE',  ( 2.243367403709918490E-14, -1.499999999999990674, 6.425259613311395945 ) ) ;
#31 = CIRCLE ( 'NONE', #150, 0.4249999999999998779 ) ;
#32 = APPROVAL_DATE_TIME ( #238, #21 ) ;
#33 = PERSON_AND_ORGANIZATION ( #203, #136 ) ;
#34 = EDGE_LOOP ( 'NONE', ( #195 ) ) ;
#35 = APPROVAL_DATE_TIME ( #88, #192 ) ;
#36 = CIRCLE ( 'NONE', #241, 0.4249999999999998779 ) ;
#37 = DIRECTION ( 'NONE',  ( 4.275831445896959482E-31, 1.000000000000000000, 1.224646799147353207E-16 ) ) ;
#38 = CARTESIAN_POINT ( 'NONE',  ( 1.326762908760390170E-13, -4.653657836759941152E-15, 37.99999999999999289 ) ) ;
#39 = APPROVAL_PERSON_ORGANIZATION ( #100, #208, #29 ) ;
#40 = DIRECTION ( 'NONE',  ( 3.491481338843133355E-15, -1.219242935835426903E-16, 1.000000000000000000 ) ) ;
#41 = CARTESIAN_POINT ( 'NONE',  ( 7.506684878512736714E-15, 1.124819836996383764E-32, 2.149999999999999911 ) ) ;
#42 = DIRECTION ( 'NONE',  ( -3.491481338843133355E-15, 1.219242935835426903E-16, -1.000000000000000000 ) ) ;
#43 = AXIS2_PLACEMENT_3D ( 'NONE', #38, #108, #74 ) ;
#44 = CALENDAR_DATE ( 2021, 16, 11 ) ;
#45 = APPLICATION_CONTEXT ( 'configuration controlled 3d designs of mechanical parts and assemblies' ) ;
#46 =( NAMED_UNIT ( * ) PLANE_ANGLE_UNIT ( ) SI_UNIT ( $, .RADIAN. ) );
#47 = DESIGN_CONTEXT ( 'detailed design', #45, 'design' ) ;
#48 = CC_DESIGN_SECURITY_CLASSIFICATION ( #222, ( #51 ) ) ;
#49 = ORIENTED_EDGE ( 'NONE', *, *, #170, .F. ) ;
#50 = CC_DESIGN_PERSON_AND_ORGANIZATION_ASSIGNMENT ( #33, #181, ( #51 ) ) ;
#51 = PRODUCT_DEFINITION_FORMATION_WITH_SPECIFIED_SOURCE ( 'ANY', '', #225, .NOT_KNOWN. ) ;
#52 = CARTESIAN_POINT ( 'NONE',  ( 7.506684878512735136E-15, -2.621372312046167446E-16, 2.149999999999999467 ) ) ;
#53 = DIRECTION ( 'NONE',  ( 3.491481338843133355E-15, -1.219242935835426903E-16, 1.000000000000000000 ) ) ;
#54 = CARTESIAN_POINT ( 'NONE',  ( 7.506684878512736714E-15, 1.124819836996383764E-32, 2.149999999999999911 ) ) ;
#55 = APPLICATION_CONTEXT ( 'configuration controlled 3d designs of mechanical parts and assemblies' ) ;
#56 = FACE_OUTER_BOUND ( 'NONE', #239, .T. ) ;
#57 = DIRECTION ( 'NONE',  ( 0.0000000000000000000, -1.000000000000000000, 0.0000000000000000000 ) ) ;
#58 = CC_DESIGN_DATE_AND_TIME_ASSIGNMENT ( #151, #62, ( #222 ) ) ;
#59 = PERSON_AND_ORGANIZATION_ROLE ( 'design_supplier' ) ;
#60 = CIRCLE ( 'NONE', #202, 1.499999999999989786 ) ;
#61 = PERSON_AND_ORGANIZATION_ROLE ( 'creator' ) ;
#62 = DATE_TIME_ROLE ( 'classification_date' ) ;
#63 = VERTEX_POINT ( 'NONE', #209 ) ;
#64 =( LENGTH_UNIT ( ) NAMED_UNIT ( * ) SI_UNIT ( .MILLI., .METRE. ) );
#65 = ORIENTED_EDGE ( 'NONE', *, *, #211, .T. ) ;
#66 = AXIS2_PLACEMENT_3D ( 'NONE', #3, #147, #37 ) ;
#67 = EDGE_LOOP ( 'NONE', ( #160 ) ) ;
#68 = CC_DESIGN_DATE_AND_TIME_ASSIGNMENT ( #115, #27, ( #149 ) ) ;
#69 = CC_DESIGN_APPROVAL ( #192, ( #222 ) ) ;
#70 = EDGE_LOOP ( 'NONE', ( #220 ) ) ;
#71 = EDGE_LOOP ( 'NONE', ( #28 ) ) ;
#72 = AXIS2_PLACEMENT_3D ( 'NONE', #94, #228, #20 ) ;
#73 = CYLINDRICAL_SURFACE ( 'NONE', #66, 1.499999999999989786 ) ;
#74 = DIRECTION ( 'NONE',  ( 0.0000000000000000000, 1.000000000000000000, 0.0000000000000000000 ) ) ;
#75 = ADVANCED_FACE ( 'NONE', ( #182, #138 ), #95, .T. ) ;
#76 = DIRECTION ( 'NONE',  ( -3.491481338843133355E-15, 1.224646799147353207E-16, -1.000000000000000000 ) ) ;
#77 = CARTESIAN_POINT ( 'NONE',  ( 1.326762908760390170E-13, -4.653657836759941152E-15, 37.99999999999999289 ) ) ;
#78 = EDGE_CURVE ( 'NONE', #133, #133, #132, .T. ) ;
#79 = CARTESIAN_POINT ( 'NONE',  ( 1.316288464743860707E-13, -4.616918432785519503E-15, 37.69999999999998153 ) ) ;
#80 = CLOSED_SHELL ( 'NONE', ( #176, #221, #183, #75, #137, #166 ) ) ;
#81 = APPLICATION_PROTOCOL_DEFINITION ( 'international standard', 'config_control_design', 1994, #55 ) ;
#82 = PERSON_AND_ORGANIZATION ( #203, #136 ) ;
#83 = MECHANICAL_CONTEXT ( 'NONE', #55, 'mechanical' ) ;
#84 = ORIENTED_EDGE ( 'NONE', *, *, #170, .T. ) ;
#85 = AXIS2_PLACEMENT_3D ( 'NONE', #77, #76, #110 ) ;
#86 = LOCAL_TIME ( 16, 45, 3.000000000000000000, #13 ) ;
#87 = APPROVAL_ROLE ( '' ) ;
#88 = DATE_AND_TIME ( #185, #18 ) ;
#89 = DIRECTION ( 'NONE',  ( -4.316975922738838061E-31, -1.000000000000000000, -1.219242935835426903E-16 ) ) ;
#90 = CONICAL_SURFACE ( 'NONE', #43, 1.199999999999992184, 0.7853981633974338461 ) ;
#91 = EDGE_CURVE ( 'NONE', #214, #214, #31, .T. ) ;
#92 = CARTESIAN_POINT ( 'NONE',  ( 2.243367403709918490E-14, -7.833952394438586219E-16, 6.425259613311395945 ) ) ;
#93 = FACE_OUTER_BOUND ( 'NONE', #198, .T. ) ;
#94 = CARTESIAN_POINT ( 'NONE',  ( 0.0000000000000000000, 0.0000000000000000000, 0.0000000000000000000 ) ) ;
#95 = CONICAL_SURFACE ( 'NONE', #191, 2.499999999999991118, 0.2617993877991428575 ) ;
#96 = CARTESIAN_POINT ( 'NONE',  ( 3.546405978734072217E-14, -1.238422897774596354E-15, 10.15731042088037483 ) ) ;
#97 = CARTESIAN_POINT ( 'NONE',  ( 7.506684878512735136E-15, -0.4250000000000001554, 2.149999999999999467 ) ) ;
#98 = CARTESIAN_POINT ( 'NONE',  ( 1.326762908760390170E-13, 1.199999999999987521, 37.99999999999999289 ) ) ;
#99 = ADVANCED_FACE ( 'NONE', ( #169 ), #144, .F. ) ;
#100 = PERSON_AND_ORGANIZATION ( #203, #136 ) ;
#101 = ORIENTED_EDGE ( 'NONE', *, *, #156, .T. ) ;
#102 = PERSON_AND_ORGANIZATION ( #203, #136 ) ;
#103 = AXIS2_PLACEMENT_3D ( 'NONE', #41, #111, #234 ) ;
#104 = EDGE_LOOP ( 'NONE', ( #9 ) ) ;
#105 = CC_DESIGN_APPROVAL ( #208, ( #149 ) ) ;
#106 = EDGE_LOOP ( 'NONE', ( #131 ) ) ;
#107 = CARTESIAN_POINT ( 'NONE',  ( 1.326762908760390170E-13, 8.998558695971017012E-33, 37.99999999999999289 ) ) ;
#108 = DIRECTION ( 'NONE',  ( -3.491481338843133355E-15, 1.224646799147353207E-16, -1.000000000000000000 ) ) ;
#109 = AXIS2_PLACEMENT_3D ( 'NONE', #242, #142, #224 ) ;
#110 = DIRECTION ( 'NONE',  ( 0.0000000000000000000, 1.000000000000000000, 0.0000000000000000000 ) ) ;
#111 = DIRECTION ( 'NONE',  ( 3.491481338843133355E-15, -1.224646799147353207E-16, 1.000000000000000000 ) ) ;
#112 = DIRECTION ( 'NONE',  ( 3.491481338843133355E-15, -1.219242935835426903E-16, 1.000000000000000000 ) ) ;
#113 = CLOSED_SHELL ( 'NONE', ( #233, #125, #99 ) ) ;
#114 = SECURITY_CLASSIFICATION_LEVEL ( 'unclassified' ) ;
#115 = DATE_AND_TIME ( #44, #173 ) ;
#116 = ORIENTED_EDGE ( 'NONE', *, *, #236, .T. ) ;
#117 = APPROVAL_STATUS ( 'not_yet_approved' ) ;
#118 = APPROVAL_PERSON_ORGANIZATION ( #162, #192, #87 ) ;
#119 =( GEOMETRIC_REPRESENTATION_CONTEXT ( 3 ) GLOBAL_UNCERTAINTY_ASSIGNED_CONTEXT ( ( #134 ) ) GLOBAL_UNIT_ASSIGNED_CONTEXT ( ( #64, #46, #213 ) ) REPRESENTATION_CONTEXT ( 'NONE', 'WORKASPACE' ) );
#120 = PLANE ( 'NONE',  #199 ) ;
#121 = PRODUCT_RELATED_PRODUCT_CATEGORY ( 'detail', '', ( #225 ) ) ;
#122 = DIRECTION ( 'NONE',  ( -4.256963957985707137E-31, -1.000000000000000000, -1.219242935835425177E-16 ) ) ;
#123 = FACE_OUTER_BOUND ( 'NONE', #201, .T. ) ;
#124 = DIRECTION ( 'NONE',  ( 3.491481338843133355E-15, -1.224646799147353207E-16, 1.000000000000000000 ) ) ;
#125 = ADVANCED_FACE ( 'NONE', ( #1, #2 ), #204, .T. ) ;
#126 = VERTEX_POINT ( 'NONE', #129 ) ;
#127 = LOCAL_TIME ( 16, 45, 3.000000000000000000, #193 ) ;
#128 = DATE_AND_TIME ( #230, #231 ) ;
#129 = CARTESIAN_POINT ( 'NONE',  ( 9.314008610737993095E-15, -0.4931483474218602558, 2.667638090205028512 ) ) ;
#130 = DIRECTION ( 'NONE',  ( 0.0000000000000000000, 0.0000000000000000000, 1.000000000000000000 ) ) ;
#131 = ORIENTED_EDGE ( 'NONE', *, *, #211, .F. ) ;
#132 = CIRCLE ( 'NONE', #187, 1.499999999999992006 ) ;
#133 = VERTEX_POINT ( 'NONE', #152 ) ;
#134 = UNCERTAINTY_MEASURE_WITH_UNIT (LENGTH_MEASURE( 1.000000000000000082E-05 ), #64, 'distance_accuracy_value', 'NONE');
#135 = CC_DESIGN_PERSON_AND_ORGANIZATION_ASSIGNMENT ( #154, #61, ( #149 ) ) ;
#136 = ORGANIZATION ( 'UNSPECIFIED', 'UNSPECIFIED', '' ) ;
#137 = ADVANCED_FACE ( 'NONE', ( #17, #207 ), #7, .F. ) ;
#138 = FACE_OUTER_BOUND ( 'NONE', #15, .T. ) ;
#139 = PERSON_AND_ORGANIZATION ( #203, #136 ) ;
#140 = CC_DESIGN_PERSON_AND_ORGANIZATION_ASSIGNMENT ( #139, #59, ( #51 ) ) ;
#141 = CIRCLE ( 'NONE', #218, 0.4250000000000000444 ) ;
#142 = DIRECTION ( 'NONE',  ( 3.491481338843133355E-15, -1.219242935835426903E-16, 1.000000000000000000 ) ) ;
#143 = APPROVAL_STATUS ( 'not_yet_approved' ) ;
#144 = PLANE ( 'NONE',  #157 ) ;
#145 = FACE_OUTER_BOUND ( 'NONE', #34, .T. ) ;
#146 = DIRECTION ( 'NONE',  ( -3.491481338843133355E-15, 1.224646799147353207E-16, -1.000000000000000000 ) ) ;
#147 = DIRECTION ( 'NONE',  ( -3.491481338843133355E-15, 1.224646799147353207E-16, -1.000000000000000000 ) ) ;
#148 = COORDINATED_UNIVERSAL_TIME_OFFSET ( 1, 0, .AHEAD. ) ;
#149 = PRODUCT_DEFINITION ( 'UNKNOWN', '', #51, #47 ) ;
#150 = AXIS2_PLACEMENT_3D ( 'NONE', #52, #40, #57 ) ;
#151 = DATE_AND_TIME ( #5, #127 ) ;
#152 = CARTESIAN_POINT ( 'NONE',  ( 1.316288464743860707E-13, 1.499999999999987566, 37.69999999999998153 ) ) ;
#153 = ORIENTED_EDGE ( 'NONE', *, *, #78, .F. ) ;
#154 = PERSON_AND_ORGANIZATION ( #203, #136 ) ;
#155 = CALENDAR_DATE ( 2021, 16, 11 ) ;
#156 = EDGE_CURVE ( 'NONE', #178, #178, #60, .T. ) ;
#157 = AXIS2_PLACEMENT_3D ( 'NONE', #165, #22, #189 ) ;
#158 = ORIENTED_EDGE ( 'NONE', *, *, #156, .F. ) ;
#159 = CC_DESIGN_PERSON_AND_ORGANIZATION_ASSIGNMENT ( #102, #175, ( #225 ) ) ;
#160 = ORIENTED_EDGE ( 'NONE', *, *, #91, .T. ) ;
#161 = DIRECTION ( 'NONE',  ( 4.275831445896958607E-31, 1.000000000000000000, 1.224646799147353207E-16 ) ) ;
#162 = PERSON_AND_ORGANIZATION ( #203, #136 ) ;
#163 = DIRECTION ( 'NONE',  ( 0.0000000000000000000, -1.000000000000000000, 0.0000000000000000000 ) ) ;
#164 = SHAPE_DEFINITION_REPRESENTATION ( #237, #217 ) ;
#165 = CARTESIAN_POINT ( 'NONE',  ( -2.137917073001454058E-30, 7.498803648657679327E-32, -6.123237862442165323E-16 ) ) ;
#166 = ADVANCED_FACE ( 'NONE', ( #23 ), #206, .F. ) ;
#167 = CARTESIAN_POINT ( 'NONE',  ( 7.506684878512735136E-15, -4.336808689942017736E-16, 2.149999999999999467 ) ) ;
#168 = CIRCLE ( 'NONE', #109, 0.4931483474218599228 ) ;
#169 = FACE_OUTER_BOUND ( 'NONE', #106, .T. ) ;
#170 = EDGE_CURVE ( 'NONE', #8, #8, #210, .T. ) ;
#171 = DIRECTION ( 'NONE',  ( 1.000000000000000000, 0.0000000000000000000, 0.0000000000000000000 ) ) ;
#172 = APPROVAL_STATUS ( 'not_yet_approved' ) ;
#173 = LOCAL_TIME ( 16, 45, 3.000000000000000000, #212 ) ;
#174 = CARTESIAN_POINT ( 'NONE',  ( -5.279050799316231037E-30, -0.4250000000000000444, -1.511980241906545782E-15 ) ) ;
#175 = PERSON_AND_ORGANIZATION_ROLE ( 'design_owner' ) ;
#176 = ADVANCED_FACE ( 'NONE', ( #145, #123 ), #73, .T. ) ;
#177 = EDGE_LOOP ( 'NONE', ( #65 ) ) ;
#178 = VERTEX_POINT ( 'NONE', #30 ) ;
#179 = MANIFOLD_SOLID_BREP ( 'Corps-Déplacer/Copier1[2]', #113 ) ;
#180 = ORIENTED_EDGE ( 'NONE', *, *, #236, .F. ) ;
#181 = PERSON_AND_ORGANIZATION_ROLE ( 'creator' ) ;
#182 = FACE_BOUND ( 'NONE', #104, .T. ) ;
#183 = ADVANCED_FACE ( 'NONE', ( #56 ), #120, .F. ) ;
#184 = DIRECTION ( 'NONE',  ( -3.491481338843133355E-15, 1.224646799147353207E-16, -1.000000000000000000 ) ) ;
#185 = CALENDAR_DATE ( 2021, 16, 11 ) ;
#186 = DIRECTION ( 'NONE',  ( -4.275831445896958607E-31, -1.000000000000000000, -1.224646799147353207E-16 ) ) ;
#187 = AXIS2_PLACEMENT_3D ( 'NONE', #79, #146, #190 ) ;
#188 = PLANE ( 'NONE',  #103 ) ;
#189 = DIRECTION ( 'NONE',  ( -4.275831445896958607E-31, -1.000000000000000000, -1.224646799147353207E-16 ) ) ;
#190 = DIRECTION ( 'NONE',  ( 0.0000000000000000000, 1.000000000000000000, 0.0000000000000000000 ) ) ;
#191 = AXIS2_PLACEMENT_3D ( 'NONE', #96, #19, #226 ) ;
#192 = APPROVAL ( #143, 'UNSPECIFIED' ) ;
#193 = COORDINATED_UNIVERSAL_TIME_OFFSET ( 1, 0, .AHEAD. ) ;
#194 = PERSON_AND_ORGANIZATION ( #203, #136 ) ;
#195 = ORIENTED_EDGE ( 'NONE', *, *, #78, .T. ) ;
#196 = APPROVAL_PERSON_ORGANIZATION ( #194, #21, #6 ) ;
#197 = PERSON_AND_ORGANIZATION_ROLE ( 'classification_officer' ) ;
#198 = EDGE_LOOP ( 'NONE', ( #153 ) ) ;
#199 = AXIS2_PLACEMENT_3D ( 'NONE', #107, #184, #161 ) ;
#200 = EDGE_CURVE ( 'NONE', #126, #126, #168, .T. ) ;
#201 = EDGE_LOOP ( 'NONE', ( #158 ) ) ;
#202 = AXIS2_PLACEMENT_3D ( 'NONE', #92, #42, #163 ) ;
#203 = PERSON ( 'UNSPECIFIED', 'UNSPECIFIED', 'UNSPECIFIED', ('UNSPECIFIED'), ('UNSPECIFIED'), ('UNSPECIFIED') ) ;
#204 = CYLINDRICAL_SURFACE ( 'NONE', #72, 0.4249999999999999334 ) ;
#205 = FACE_OUTER_BOUND ( 'NONE', #67, .T. ) ;
#206 = PLANE ( 'NONE',  #215 ) ;
#207 = FACE_OUTER_BOUND ( 'NONE', #71, .T. ) ;
#208 = APPROVAL ( #117, 'UNSPECIFIED' ) ;
#209 = CARTESIAN_POINT ( 'NONE',  ( 7.506684878512735136E-15, -0.4250000000000001554, 2.149999999999999467 ) ) ;
#210 = CIRCLE ( 'NONE', #85, 1.199999999999992184 ) ;
#211 = EDGE_CURVE ( 'NONE', #232, #232, #141, .T. ) ;
#212 = COORDINATED_UNIVERSAL_TIME_OFFSET ( 1, 0, .AHEAD. ) ;
#213 =( NAMED_UNIT ( * ) SI_UNIT ( $, .STERADIAN. ) SOLID_ANGLE_UNIT ( ) );
#214 = VERTEX_POINT ( 'NONE', #97 ) ;
#215 = AXIS2_PLACEMENT_3D ( 'NONE', #54, #124, #186 ) ;
#216 = EDGE_LOOP ( 'NONE', ( #180 ) ) ;
#217 = ADVANCED_BREP_SHAPE_REPRESENTATION ( '966127', ( #16, #179, #24 ), #119 ) ;
#218 = AXIS2_PLACEMENT_3D ( 'NONE', #227, #53, #122 ) ;
#219 = CC_DESIGN_PERSON_AND_ORGANIZATION_ASSIGNMENT ( #82, #197, ( #222 ) ) ;
#220 = ORIENTED_EDGE ( 'NONE', *, *, #91, .F. ) ;
#221 = ADVANCED_FACE ( 'NONE', ( #93, #243 ), #90, .T. ) ;
#222 = SECURITY_CLASSIFICATION ( '', '', #114 ) ;
#223 = CC_DESIGN_APPROVAL ( #21, ( #51 ) ) ;
#224 = DIRECTION ( 'NONE',  ( 0.0000000000000000000, -1.000000000000000000, 0.0000000000000000000 ) ) ;
#225 = PRODUCT ( '966127', '966127', '', ( #83 ) ) ;
#226 = DIRECTION ( 'NONE',  ( 0.0000000000000000000, -1.000000000000000000, 0.0000000000000000000 ) ) ;
#227 = CARTESIAN_POINT ( 'NONE',  ( -5.098129831101837838E-30, 1.780292712262450724E-31, -1.460162417133540193E-15 ) ) ;
#228 = DIRECTION ( 'NONE',  ( 3.491481338843133355E-15, -1.219242935835426903E-16, 1.000000000000000000 ) ) ;
#229 = APPLICATION_PROTOCOL_DEFINITION ( 'international standard', 'config_control_design', 1994, #45 ) ;
#230 = CALENDAR_DATE ( 2021, 16, 11 ) ;
#231 = LOCAL_TIME ( 16, 45, 3.000000000000000000, #148 ) ;
#232 = VERTEX_POINT ( 'NONE', #174 ) ;
#233 = ADVANCED_FACE ( 'NONE', ( #205 ), #188, .T. ) ;
#234 = DIRECTION ( 'NONE',  ( -4.275831445896958607E-31, -1.000000000000000000, -1.224646799147353207E-16 ) ) ;
#235 = EDGE_LOOP ( 'NONE', ( #84 ) ) ;
#236 = EDGE_CURVE ( 'NONE', #63, #63, #36, .T. ) ;
#237 = PRODUCT_DEFINITION_SHAPE ( 'NONE', 'NONE',  #149 ) ;
#238 = DATE_AND_TIME ( #155, #86 ) ;
#239 = EDGE_LOOP ( 'NONE', ( #49 ) ) ;
#240 = EDGE_LOOP ( 'NONE', ( #116 ) ) ;
#241 = AXIS2_PLACEMENT_3D ( 'NONE', #11, #4, #26 ) ;
#242 = CARTESIAN_POINT ( 'NONE',  ( 9.314008610737993095E-15, -3.252498896847990683E-16, 2.667638090205028512 ) ) ;
#243 = FACE_BOUND ( 'NONE', #235, .T. ) ;
ENDSEC;
END-ISO-10303-21;
