ISO-10303-21;
HEADER;
FILE_DESCRIPTION (( 'STEP AP203' ),
    '1' );
FILE_NAME ('966126.step',
    '2021-11-16T15:45:02',
    ( '' ),
    ( '' ),
    'SwSTEP 2.0',
    'SolidWorks 2019',
    '' );
FILE_SCHEMA (( 'CONFIG_CONTROL_DESIGN' ));
ENDSEC;

DATA;
#1 = CARTESIAN_POINT ( 'NONE',  ( 1.326762908760390170E-13, 8.998558695971017012E-33, 37.99999999999999289 ) ) ;
#2 = CC_DESIGN_APPROVAL ( #55, ( #3 ) ) ;
#3 = PRODUCT_DEFINITION ( 'UNKNOWN', '', #202, #214 ) ;
#4 = ADVANCED_FACE ( 'NONE', ( #242, #243 ), #131, .T. ) ;
#5 = EDGE_LOOP ( 'NONE', ( #179 ) ) ;
#6 = CARTESIAN_POINT ( 'NONE',  ( 6.982962677686266711E-15, 1.124819836996383764E-32, 2.000000000000000000 ) ) ;
#7 = CARTESIAN_POINT ( 'NONE',  ( -5.087487421206874150E-30, 1.776576328920989384E-31, -1.457114309793951640E-15 ) ) ;
#8 = ORIENTED_EDGE ( 'NONE', *, *, #52, .T. ) ;
#9 = FACE_OUTER_BOUND ( 'NONE', #111, .T. ) ;
#10 = CARTESIAN_POINT ( 'NONE',  ( 6.982962677686265133E-15, -4.336808689942017736E-16, 1.999999999999999556 ) ) ;
#11 = COORDINATED_UNIVERSAL_TIME_OFFSET ( 1, 0, .AHEAD. ) ;
#12 = DIRECTION ( 'NONE',  ( 0.0000000000000000000, 0.0000000000000000000, 1.000000000000000000 ) ) ;
#13 = PERSON_AND_ORGANIZATION_ROLE ( 'creator' ) ;
#14 = AXIS2_PLACEMENT_3D ( 'NONE', #208, #136, #194 ) ;
#15 = DATE_AND_TIME ( #206, #112 ) ;
#16 = COORDINATED_UNIVERSAL_TIME_OFFSET ( 1, 0, .AHEAD. ) ;
#17 = CIRCLE ( 'NONE', #218, 0.4681483474218601226 ) ;
#18 = ADVANCED_BREP_SHAPE_REPRESENTATION ( '966126', ( #176, #173, #81 ), #223 ) ;
#19 = FACE_OUTER_BOUND ( 'NONE', #231, .T. ) ;
#20 = CIRCLE ( 'NONE', #106, 0.3999999999999999667 ) ;
#21 = EDGE_LOOP ( 'NONE', ( #48 ) ) ;
#22 = CARTESIAN_POINT ( 'NONE',  ( 8.790286409911523091E-15, -3.069612456472676549E-16, 2.517638090205028600 ) ) ;
#23 = DIRECTION ( 'NONE',  ( 4.275831445896959482E-31, 1.000000000000000000, 1.224646799147353207E-16 ) ) ;
#24 = CARTESIAN_POINT ( 'NONE',  ( 2.223571148002874678E-14, -7.764822868645953486E-16, 6.368560883500617997 ) ) ;
#25 = AXIS2_PLACEMENT_3D ( 'NONE', #153, #113, #75 ) ;
#26 = CYLINDRICAL_SURFACE ( 'NONE', #87, 1.499999999999989786 ) ;
#27 = APPROVAL ( #129, 'UNSPECIFIED' ) ;
#28 = CC_DESIGN_PERSON_AND_ORGANIZATION_ASSIGNMENT ( #236, #89, ( #68 ) ) ;
#29 = DIRECTION ( 'NONE',  ( -3.491481338843133355E-15, 1.219242935835426903E-16, -1.000000000000000000 ) ) ;
#30 = APPROVAL_PERSON_ORGANIZATION ( #147, #55, #219 ) ;
#31 = MECHANICAL_CONTEXT ( 'NONE', #121, 'mechanical' ) ;
#32 = CC_DESIGN_PERSON_AND_ORGANIZATION_ASSIGNMENT ( #190, #151, ( #202 ) ) ;
#33 = VERTEX_POINT ( 'NONE', #239 ) ;
#34 = PRODUCT_DEFINITION_SHAPE ( 'NONE', 'NONE',  #3 ) ;
#35 = APPROVAL_DATE_TIME ( #15, #229 ) ;
#36 = LOCAL_TIME ( 16, 45, 2.000000000000000000, #11 ) ;
#37 = APPROVAL_STATUS ( 'not_yet_approved' ) ;
#38 = ADVANCED_FACE ( 'NONE', ( #225 ), #227, .T. ) ;
#39 = SHAPE_DEFINITION_REPRESENTATION ( #34, #18 ) ;
#40 = AXIS2_PLACEMENT_3D ( 'NONE', #79, #57, #180 ) ;
#41 = PERSON_AND_ORGANIZATION_ROLE ( 'creator' ) ;
#42 = EDGE_LOOP ( 'NONE', ( #58 ) ) ;
#43 = FACE_OUTER_BOUND ( 'NONE', #42, .T. ) ;
#44 = ORIENTED_EDGE ( 'NONE', *, *, #210, .T. ) ;
#45 = LOCAL_TIME ( 16, 45, 2.000000000000000000, #16 ) ;
#46 = CARTESIAN_POINT ( 'NONE',  ( 1.326762908760390170E-13, -4.653657836759941152E-15, 37.99999999999999289 ) ) ;
#47 = DIRECTION ( 'NONE',  ( -3.491481338843133355E-15, 1.224646799147353207E-16, -1.000000000000000000 ) ) ;
#48 = ORIENTED_EDGE ( 'NONE', *, *, #72, .F. ) ;
#49 = DIRECTION ( 'NONE',  ( 0.0000000000000000000, 1.000000000000000000, 0.0000000000000000000 ) ) ;
#50 = DIRECTION ( 'NONE',  ( 3.491481338843133355E-15, -1.219242935835426903E-16, 1.000000000000000000 ) ) ;
#51 = VERTEX_POINT ( 'NONE', #161 ) ;
#52 = EDGE_CURVE ( 'NONE', #71, #71, #183, .T. ) ;
#53 = VERTEX_POINT ( 'NONE', #182 ) ;
#54 = CC_DESIGN_SECURITY_CLASSIFICATION ( #67, ( #202 ) ) ;
#55 = APPROVAL ( #181, 'UNSPECIFIED' ) ;
#56 = AXIS2_PLACEMENT_3D ( 'NONE', #100, #59, #155 ) ;
#57 = DIRECTION ( 'NONE',  ( 3.491481338843133355E-15, -1.219242935835426903E-16, 1.000000000000000000 ) ) ;
#58 = ORIENTED_EDGE ( 'NONE', *, *, #145, .F. ) ;
#59 = DIRECTION ( 'NONE',  ( 3.491481338843133355E-15, -1.219242935835426903E-16, 1.000000000000000000 ) ) ;
#60 = ORIENTED_EDGE ( 'NONE', *, *, #188, .T. ) ;
#61 = CIRCLE ( 'NONE', #171, 0.3999999999999995226 ) ;
#62 = CARTESIAN_POINT ( 'NONE',  ( -2.137917073001454058E-30, 7.498803648657679327E-32, -6.123237862442165323E-16 ) ) ;
#63 = DIRECTION ( 'NONE',  ( 0.0000000000000000000, 1.000000000000000000, 0.0000000000000000000 ) ) ;
#64 = ORIENTED_EDGE ( 'NONE', *, *, #135, .T. ) ;
#65 = CC_DESIGN_PERSON_AND_ORGANIZATION_ASSIGNMENT ( #93, #41, ( #202 ) ) ;
#66 = CALENDAR_DATE ( 2021, 16, 11 ) ;
#67 = SECURITY_CLASSIFICATION ( '', '', #132 ) ;
#68 = PRODUCT ( '966126', '966126', '', ( #31 ) ) ;
#69 =( NAMED_UNIT ( * ) PLANE_ANGLE_UNIT ( ) SI_UNIT ( $, .RADIAN. ) );
#70 = CC_DESIGN_APPROVAL ( #27, ( #202 ) ) ;
#71 = VERTEX_POINT ( 'NONE', #104 ) ;
#72 = EDGE_CURVE ( 'NONE', #238, #238, #101, .T. ) ;
#73 = ADVANCED_FACE ( 'NONE', ( #213 ), #175, .F. ) ;
#74 = APPROVAL_DATE_TIME ( #200, #27 ) ;
#75 = DIRECTION ( 'NONE',  ( -4.256963957985708889E-31, -1.000000000000000000, -1.219242935835426903E-16 ) ) ;
#76 = DIRECTION ( 'NONE',  ( 3.491481338843133355E-15, -1.219242935835426903E-16, 1.000000000000000000 ) ) ;
#77 = EDGE_LOOP ( 'NONE', ( #8 ) ) ;
#78 = CARTESIAN_POINT ( 'NONE',  ( 1.316288464743860707E-13, -4.616918432785519503E-15, 37.69999999999998153 ) ) ;
#79 = CARTESIAN_POINT ( 'NONE',  ( 3.526609723027027774E-14, -1.231509945195333180E-15, 10.10061169106959689 ) ) ;
#80 = ORIENTED_EDGE ( 'NONE', *, *, #188, .F. ) ;
#81 = AXIS2_PLACEMENT_3D ( 'NONE', #184, #12, #88 ) ;
#82 = FACE_OUTER_BOUND ( 'NONE', #5, .T. ) ;
#83 = ORIENTED_EDGE ( 'NONE', *, *, #72, .T. ) ;
#84 = DIRECTION ( 'NONE',  ( 0.0000000000000000000, -1.000000000000000000, 0.0000000000000000000 ) ) ;
#85 = APPLICATION_PROTOCOL_DEFINITION ( 'international standard', 'config_control_design', 1994, #121 ) ;
#86 = CARTESIAN_POINT ( 'NONE',  ( 1.326762908760390170E-13, 1.199999999999987521, 37.99999999999999289 ) ) ;
#87 = AXIS2_PLACEMENT_3D ( 'NONE', #197, #170, #23 ) ;
#88 = DIRECTION ( 'NONE',  ( 1.000000000000000000, 0.0000000000000000000, 0.0000000000000000000 ) ) ;
#89 = PERSON_AND_ORGANIZATION_ROLE ( 'design_owner' ) ;
#90 = COORDINATED_UNIVERSAL_TIME_OFFSET ( 1, 0, .AHEAD. ) ;
#91 = CC_DESIGN_PERSON_AND_ORGANIZATION_ASSIGNMENT ( #203, #13, ( #3 ) ) ;
#92 = CC_DESIGN_DATE_AND_TIME_ASSIGNMENT ( #109, #224, ( #67 ) ) ;
#93 = PERSON_AND_ORGANIZATION ( #108, #117 ) ;
#94 = AXIS2_PLACEMENT_3D ( 'NONE', #78, #138, #157 ) ;
#95 = DIRECTION ( 'NONE',  ( 3.491481338843133355E-15, -1.219242935835426903E-16, 1.000000000000000000 ) ) ;
#96 = PRODUCT_RELATED_PRODUCT_CATEGORY ( 'detail', '', ( #68 ) ) ;
#97 = CC_DESIGN_DATE_AND_TIME_ASSIGNMENT ( #216, #164, ( #3 ) ) ;
#98 = EDGE_LOOP ( 'NONE', ( #140 ) ) ;
#99 = PLANE ( 'NONE',  #148 ) ;
#100 = CARTESIAN_POINT ( 'NONE',  ( 6.982962677686265133E-15, -2.438485871670853312E-16, 1.999999999999999556 ) ) ;
#101 = CIRCLE ( 'NONE', #56, 0.3999999999999995226 ) ;
#102 = DIRECTION ( 'NONE',  ( -4.317316899811299520E-31, -1.000000000000000000, -1.219242935835426903E-16 ) ) ;
#103 = DATE_AND_TIME ( #128, #137 ) ;
#104 = CARTESIAN_POINT ( 'NONE',  ( 1.316288464743860707E-13, 1.499999999999987566, 37.69999999999998153 ) ) ;
#105 =( NAMED_UNIT ( * ) SI_UNIT ( $, .STERADIAN. ) SOLID_ANGLE_UNIT ( ) );
#106 = AXIS2_PLACEMENT_3D ( 'NONE', #7, #76, #232 ) ;
#107 = COORDINATED_UNIVERSAL_TIME_OFFSET ( 1, 0, .AHEAD. ) ;
#108 = PERSON ( 'UNSPECIFIED', 'UNSPECIFIED', 'UNSPECIFIED', ('UNSPECIFIED'), ('UNSPECIFIED'), ('UNSPECIFIED') ) ;
#109 = DATE_AND_TIME ( #186, #45 ) ;
#110 = ADVANCED_FACE ( 'NONE', ( #209, #192 ), #130, .T. ) ;
#111 = EDGE_LOOP ( 'NONE', ( #80 ) ) ;
#112 = LOCAL_TIME ( 16, 45, 2.000000000000000000, #167 ) ;
#113 = DIRECTION ( 'NONE',  ( 3.491481338843133355E-15, -1.219242935835426903E-16, 1.000000000000000000 ) ) ;
#114 = EDGE_LOOP ( 'NONE', ( #60 ) ) ;
#115 = FACE_BOUND ( 'NONE', #212, .T. ) ;
#116 = ADVANCED_FACE ( 'NONE', ( #19, #230 ), #205, .F. ) ;
#117 = ORGANIZATION ( 'UNSPECIFIED', 'UNSPECIFIED', '' ) ;
#118 = DIRECTION ( 'NONE',  ( -4.275831445896958607E-31, -1.000000000000000000, -1.224646799147353207E-16 ) ) ;
#119 = ORIENTED_EDGE ( 'NONE', *, *, #135, .F. ) ;
#120 = DIRECTION ( 'NONE',  ( 3.491481338843133355E-15, -1.224646799147353207E-16, 1.000000000000000000 ) ) ;
#121 = APPLICATION_CONTEXT ( 'configuration controlled 3d designs of mechanical parts and assemblies' ) ;
#122 = ORIENTED_EDGE ( 'NONE', *, *, #241, .T. ) ;
#123 = PLANE ( 'NONE',  #189 ) ;
#124 = AXIS2_PLACEMENT_3D ( 'NONE', #24, #29, #240 ) ;
#125 = DIRECTION ( 'NONE',  ( 3.491481338843133355E-15, -1.219242935835426903E-16, 1.000000000000000000 ) ) ;
#126 = CALENDAR_DATE ( 2021, 16, 11 ) ;
#127 = APPROVAL_PERSON_ORGANIZATION ( #166, #229, #152 ) ;
#128 = CALENDAR_DATE ( 2021, 16, 11 ) ;
#129 = APPROVAL_STATUS ( 'not_yet_approved' ) ;
#130 = CONICAL_SURFACE ( 'NONE', #40, 2.499999999999991118, 0.2617993877991429130 ) ;
#131 = CYLINDRICAL_SURFACE ( 'NONE', #25, 0.3999999999999997446 ) ;
#132 = SECURITY_CLASSIFICATION_LEVEL ( 'unclassified' ) ;
#133 = AXIS2_PLACEMENT_3D ( 'NONE', #46, #160, #63 ) ;
#134 = DIRECTION ( 'NONE',  ( 0.0000000000000000000, -1.000000000000000000, 0.0000000000000000000 ) ) ;
#135 = EDGE_CURVE ( 'NONE', #51, #51, #17, .T. ) ;
#136 = DIRECTION ( 'NONE',  ( 3.491481338843133355E-15, -1.224646799147353207E-16, 1.000000000000000000 ) ) ;
#137 = LOCAL_TIME ( 16, 45, 2.000000000000000000, #107 ) ;
#138 = DIRECTION ( 'NONE',  ( -3.491481338843133355E-15, 1.224646799147353207E-16, -1.000000000000000000 ) ) ;
#139 = UNCERTAINTY_MEASURE_WITH_UNIT (LENGTH_MEASURE( 1.000000000000000082E-05 ), #162, 'distance_accuracy_value', 'NONE');
#140 = ORIENTED_EDGE ( 'NONE', *, *, #241, .F. ) ;
#141 = DIRECTION ( 'NONE',  ( 3.491481338843133355E-15, -1.224646799147353207E-16, 1.000000000000000000 ) ) ;
#142 = CARTESIAN_POINT ( 'NONE',  ( 6.982962677686265133E-15, -2.438485871670853312E-16, 1.999999999999999556 ) ) ;
#143 = LOCAL_TIME ( 16, 45, 2.000000000000000000, #90 ) ;
#144 = CARTESIAN_POINT ( 'NONE',  ( 6.982962677686265133E-15, -0.3999999999999997446, 1.999999999999999556 ) ) ;
#145 = EDGE_CURVE ( 'NONE', #220, #220, #233, .T. ) ;
#146 = VERTEX_POINT ( 'NONE', #217 ) ;
#147 = PERSON_AND_ORGANIZATION ( #108, #117 ) ;
#148 = AXIS2_PLACEMENT_3D ( 'NONE', #1, #47, #235 ) ;
#149 = PERSON_AND_ORGANIZATION ( #108, #117 ) ;
#150 = PERSON_AND_ORGANIZATION ( #108, #117 ) ;
#151 = PERSON_AND_ORGANIZATION_ROLE ( 'design_supplier' ) ;
#152 = APPROVAL_ROLE ( '' ) ;
#153 = CARTESIAN_POINT ( 'NONE',  ( 0.0000000000000000000, 0.0000000000000000000, 0.0000000000000000000 ) ) ;
#154 = CLOSED_SHELL ( 'NONE', ( #221, #222, #169, #110, #116, #73 ) ) ;
#155 = DIRECTION ( 'NONE',  ( 0.0000000000000000000, -1.000000000000000000, 0.0000000000000000000 ) ) ;
#156 = EDGE_LOOP ( 'NONE', ( #119 ) ) ;
#157 = DIRECTION ( 'NONE',  ( 0.0000000000000000000, 1.000000000000000000, 0.0000000000000000000 ) ) ;
#158 = AXIS2_PLACEMENT_3D ( 'NONE', #159, #234, #49 ) ;
#159 = CARTESIAN_POINT ( 'NONE',  ( 1.326762908760390170E-13, -4.653657836759941152E-15, 37.99999999999999289 ) ) ;
#160 = DIRECTION ( 'NONE',  ( -3.491481338843133355E-15, 1.224646799147353207E-16, -1.000000000000000000 ) ) ;
#161 = CARTESIAN_POINT ( 'NONE',  ( 8.790286409911523091E-15, -0.4681483474218604002, 2.517638090205028600 ) ) ;
#162 =( LENGTH_UNIT ( ) NAMED_UNIT ( * ) SI_UNIT ( .MILLI., .METRE. ) );
#163 = APPLICATION_PROTOCOL_DEFINITION ( 'international standard', 'config_control_design', 1994, #201 ) ;
#164 = DATE_TIME_ROLE ( 'creation_date' ) ;
#165 = CLOSED_SHELL ( 'NONE', ( #38, #4, #191 ) ) ;
#166 = PERSON_AND_ORGANIZATION ( #108, #117 ) ;
#167 = COORDINATED_UNIVERSAL_TIME_OFFSET ( 1, 0, .AHEAD. ) ;
#168 = PERSON_AND_ORGANIZATION_ROLE ( 'classification_officer' ) ;
#169 = ADVANCED_FACE ( 'NONE', ( #43 ), #99, .F. ) ;
#170 = DIRECTION ( 'NONE',  ( -3.491481338843133355E-15, 1.224646799147353207E-16, -1.000000000000000000 ) ) ;
#171 = AXIS2_PLACEMENT_3D ( 'NONE', #142, #125, #134 ) ;
#172 = ORIENTED_EDGE ( 'NONE', *, *, #210, .F. ) ;
#173 = MANIFOLD_SOLID_BREP ( 'Corps-Déplacer/Copier1[2]', #165 ) ;
#174 = EDGE_LOOP ( 'NONE', ( #64 ) ) ;
#175 = PLANE ( 'NONE',  #14 ) ;
#176 = MANIFOLD_SOLID_BREP ( 'Corps-Déplacer/Copier1[1]', #154 ) ;
#177 = EDGE_LOOP ( 'NONE', ( #122 ) ) ;
#178 = APPROVAL_PERSON_ORGANIZATION ( #149, #27, #204 ) ;
#179 = ORIENTED_EDGE ( 'NONE', *, *, #52, .F. ) ;
#180 = DIRECTION ( 'NONE',  ( 0.0000000000000000000, -1.000000000000000000, 0.0000000000000000000 ) ) ;
#181 = APPROVAL_STATUS ( 'not_yet_approved' ) ;
#182 = CARTESIAN_POINT ( 'NONE',  ( 6.982962677686265133E-15, -0.3999999999999997446, 1.999999999999999556 ) ) ;
#183 = CIRCLE ( 'NONE', #94, 1.499999999999992006 ) ;
#184 = CARTESIAN_POINT ( 'NONE',  ( 0.0000000000000000000, 0.0000000000000000000, 0.0000000000000000000 ) ) ;
#185 = APPROVAL_DATE_TIME ( #103, #55 ) ;
#186 = CALENDAR_DATE ( 2021, 16, 11 ) ;
#187 = AXIS2_PLACEMENT_3D ( 'NONE', #10, #95, #102 ) ;
#188 = EDGE_CURVE ( 'NONE', #146, #146, #20, .T. ) ;
#189 = AXIS2_PLACEMENT_3D ( 'NONE', #62, #120, #215 ) ;
#190 = PERSON_AND_ORGANIZATION ( #108, #117 ) ;
#191 = ADVANCED_FACE ( 'NONE', ( #9 ), #123, .F. ) ;
#192 = FACE_OUTER_BOUND ( 'NONE', #177, .T. ) ;
#193 = CC_DESIGN_APPROVAL ( #229, ( #67 ) ) ;
#194 = DIRECTION ( 'NONE',  ( -4.275831445896958607E-31, -1.000000000000000000, -1.224646799147353207E-16 ) ) ;
#195 = ORIENTED_EDGE ( 'NONE', *, *, #145, .T. ) ;
#196 = FACE_OUTER_BOUND ( 'NONE', #77, .T. ) ;
#197 = CARTESIAN_POINT ( 'NONE',  ( 0.0000000000000000000, 0.0000000000000000000, 0.0000000000000000000 ) ) ;
#198 = FACE_OUTER_BOUND ( 'NONE', #98, .T. ) ;
#199 = CC_DESIGN_PERSON_AND_ORGANIZATION_ASSIGNMENT ( #150, #168, ( #67 ) ) ;
#200 = DATE_AND_TIME ( #126, #36 ) ;
#201 = APPLICATION_CONTEXT ( 'configuration controlled 3d designs of mechanical parts and assemblies' ) ;
#202 = PRODUCT_DEFINITION_FORMATION_WITH_SPECIFIED_SOURCE ( 'ANY', '', #68, .NOT_KNOWN. ) ;
#203 = PERSON_AND_ORGANIZATION ( #108, #117 ) ;
#204 = APPROVAL_ROLE ( '' ) ;
#205 = TOROIDAL_SURFACE ( 'NONE', #187, 2.400000000000000355, 2.000000000000000000 ) ;
#206 = CALENDAR_DATE ( 2021, 16, 11 ) ;
#207 = AXIS2_PLACEMENT_3D ( 'NONE', #6, #141, #118 ) ;
#208 = CARTESIAN_POINT ( 'NONE',  ( 6.982962677686266711E-15, 1.124819836996383764E-32, 2.000000000000000000 ) ) ;
#209 = FACE_BOUND ( 'NONE', #174, .T. ) ;
#210 = EDGE_CURVE ( 'NONE', #53, #53, #61, .T. ) ;
#211 = EDGE_LOOP ( 'NONE', ( #44 ) ) ;
#212 = EDGE_LOOP ( 'NONE', ( #195 ) ) ;
#213 = FACE_OUTER_BOUND ( 'NONE', #21, .T. ) ;
#214 = DESIGN_CONTEXT ( 'detailed design', #201, 'design' ) ;
#215 = DIRECTION ( 'NONE',  ( -4.275831445896958607E-31, -1.000000000000000000, -1.224646799147353207E-16 ) ) ;
#216 = DATE_AND_TIME ( #66, #143 ) ;
#217 = CARTESIAN_POINT ( 'NONE',  ( -5.257765979526302961E-30, -0.3999999999999999667, -1.505884027227368874E-15 ) ) ;
#218 = AXIS2_PLACEMENT_3D ( 'NONE', #22, #50, #84 ) ;
#219 = APPROVAL_ROLE ( '' ) ;
#220 = VERTEX_POINT ( 'NONE', #86 ) ;
#221 = ADVANCED_FACE ( 'NONE', ( #196, #198 ), #26, .T. ) ;
#222 = ADVANCED_FACE ( 'NONE', ( #82, #115 ), #226, .T. ) ;
#223 =( GEOMETRIC_REPRESENTATION_CONTEXT ( 3 ) GLOBAL_UNCERTAINTY_ASSIGNED_CONTEXT ( ( #139 ) ) GLOBAL_UNIT_ASSIGNED_CONTEXT ( ( #162, #69, #105 ) ) REPRESENTATION_CONTEXT ( 'NONE', 'WORKASPACE' ) );
#224 = DATE_TIME_ROLE ( 'classification_date' ) ;
#225 = FACE_OUTER_BOUND ( 'NONE', #211, .T. ) ;
#226 = CONICAL_SURFACE ( 'NONE', #158, 1.199999999999992184, 0.7853981633974338461 ) ;
#227 = PLANE ( 'NONE',  #207 ) ;
#228 = EDGE_LOOP ( 'NONE', ( #172 ) ) ;
#229 = APPROVAL ( #37, 'UNSPECIFIED' ) ;
#230 = FACE_OUTER_BOUND ( 'NONE', #156, .T. ) ;
#231 = EDGE_LOOP ( 'NONE', ( #83 ) ) ;
#232 = DIRECTION ( 'NONE',  ( -4.256963957985706261E-31, -1.000000000000000000, -1.219242935835428382E-16 ) ) ;
#233 = CIRCLE ( 'NONE', #133, 1.199999999999992184 ) ;
#234 = DIRECTION ( 'NONE',  ( -3.491481338843133355E-15, 1.224646799147353207E-16, -1.000000000000000000 ) ) ;
#235 = DIRECTION ( 'NONE',  ( 4.275831445896958607E-31, 1.000000000000000000, 1.224646799147353207E-16 ) ) ;
#236 = PERSON_AND_ORGANIZATION ( #108, #117 ) ;
#237 = CIRCLE ( 'NONE', #124, 1.499999999999989786 ) ;
#238 = VERTEX_POINT ( 'NONE', #144 ) ;
#239 = CARTESIAN_POINT ( 'NONE',  ( 2.223571148002874678E-14, -1.499999999999990674, 6.368560883500617997 ) ) ;
#240 = DIRECTION ( 'NONE',  ( 0.0000000000000000000, -1.000000000000000000, 0.0000000000000000000 ) ) ;
#241 = EDGE_CURVE ( 'NONE', #33, #33, #237, .T. ) ;
#242 = FACE_OUTER_BOUND ( 'NONE', #114, .T. ) ;
#243 = FACE_OUTER_BOUND ( 'NONE', #228, .T. ) ;
ENDSEC;
END-ISO-10303-21;
