ISO-10303-21;
HEADER;
FILE_DESCRIPTION (( 'STEP AP203' ),
    '1' );
FILE_NAME ('966125.step',
    '2021-11-16T15:45:02',
    ( '' ),
    ( '' ),
    'SwSTEP 2.0',
    'SolidWorks 2019',
    '' );
FILE_SCHEMA (( 'CONFIG_CONTROL_DESIGN' ));
ENDSEC;

DATA;
#1 = DIRECTION ( 'NONE',  ( -4.256963957985704510E-31, -1.000000000000000000, -1.219242935835427149E-16 ) ) ;
#2 = CARTESIAN_POINT ( 'NONE',  ( 0.0000000000000000000, 0.0000000000000000000, 0.0000000000000000000 ) ) ;
#3 = AXIS2_PLACEMENT_3D ( 'NONE', #101, #81, #15 ) ;
#4 = ADVANCED_FACE ( 'NONE', ( #95, #75 ), #190, .T. ) ;
#5 = CARTESIAN_POINT ( 'NONE',  ( 8.441138276027208178E-15, -2.947688162889132971E-16, 2.417638090205028067 ) ) ;
#6 = COORDINATED_UNIVERSAL_TIME_OFFSET ( 1, 0, .AHEAD. ) ;
#7 = CARTESIAN_POINT ( 'NONE',  ( -5.076845011311910462E-30, 1.772859945579527825E-31, -1.454066202454363088E-15 ) ) ;
#8 = MANIFOLD_SOLID_BREP ( 'Corps-Déplacer/Copier1[2]', #90 ) ;
#9 = CARTESIAN_POINT ( 'NONE',  ( 2.221232298990047480E-14, -7.756655489645097719E-16, 6.361862153689844313 ) ) ;
#10 = PERSON_AND_ORGANIZATION_ROLE ( 'design_supplier' ) ;
#11 = AXIS2_PLACEMENT_3D ( 'NONE', #105, #179, #89 ) ;
#12 = APPROVAL_DATE_TIME ( #222, #157 ) ;
#13 = ORIENTED_EDGE ( 'NONE', *, *, #53, .T. ) ;
#14 = ORIENTED_EDGE ( 'NONE', *, *, #39, .T. ) ;
#15 = DIRECTION ( 'NONE',  ( -4.275831445896958607E-31, -1.000000000000000000, -1.224646799147353207E-16 ) ) ;
#16 = AXIS2_PLACEMENT_3D ( 'NONE', #44, #199, #121 ) ;
#17 = EDGE_LOOP ( 'NONE', ( #151 ) ) ;
#18 = CARTESIAN_POINT ( 'NONE',  ( 6.633814543801950220E-15, -0.3749999999999998890, 1.899999999999999023 ) ) ;
#19 = AXIS2_PLACEMENT_3D ( 'NONE', #103, #233, #162 ) ;
#20 = PERSON ( 'UNSPECIFIED', 'UNSPECIFIED', 'UNSPECIFIED', ('UNSPECIFIED'), ('UNSPECIFIED'), ('UNSPECIFIED') ) ;
#21 = ORIENTED_EDGE ( 'NONE', *, *, #76, .T. ) ;
#22 = CARTESIAN_POINT ( 'NONE',  ( 1.316288464743860707E-13, -4.616918432785519503E-15, 37.69999999999998153 ) ) ;
#23 = CC_DESIGN_PERSON_AND_ORGANIZATION_ASSIGNMENT ( #52, #10, ( #188 ) ) ;
#24 = PLANE ( 'NONE',  #3 ) ;
#25 = PERSON_AND_ORGANIZATION ( #20, #209 ) ;
#26 = DIRECTION ( 'NONE',  ( 0.0000000000000000000, 1.000000000000000000, 0.0000000000000000000 ) ) ;
#27 = PERSON_AND_ORGANIZATION_ROLE ( 'design_owner' ) ;
#28 = CARTESIAN_POINT ( 'NONE',  ( 6.633814543801950220E-15, -4.336808689942017736E-16, 1.899999999999999023 ) ) ;
#29 =( LENGTH_UNIT ( ) NAMED_UNIT ( * ) SI_UNIT ( .MILLI., .METRE. ) );
#30 = DIRECTION ( 'NONE',  ( 0.0000000000000000000, -1.000000000000000000, 0.0000000000000000000 ) ) ;
#31 = PERSON_AND_ORGANIZATION_ROLE ( 'creator' ) ;
#32 = AXIS2_PLACEMENT_3D ( 'NONE', #7, #177, #1 ) ;
#33 = APPLICATION_CONTEXT ( 'configuration controlled 3d designs of mechanical parts and assemblies' ) ;
#34 = EDGE_CURVE ( 'NONE', #119, #119, #43, .T. ) ;
#35 = ADVANCED_FACE ( 'NONE', ( #62 ), #236, .T. ) ;
#36 = CIRCLE ( 'NONE', #172, 1.499999999999992006 ) ;
#37 = AXIS2_PLACEMENT_3D ( 'NONE', #2, #193, #213 ) ;
#38 = ORIENTED_EDGE ( 'NONE', *, *, #108, .F. ) ;
#39 = EDGE_CURVE ( 'NONE', #133, #133, #145, .T. ) ;
#40 = ORIENTED_EDGE ( 'NONE', *, *, #214, .T. ) ;
#41 = LOCAL_TIME ( 16, 45, 2.000000000000000000, #6 ) ;
#42 = EDGE_LOOP ( 'NONE', ( #77 ) ) ;
#43 = CIRCLE ( 'NONE', #181, 1.499999999999989786 ) ;
#44 = CARTESIAN_POINT ( 'NONE',  ( 3.524270874014201206E-14, -1.230693207295247504E-15, 10.09391296125882320 ) ) ;
#45 = DIRECTION ( 'NONE',  ( 3.491481338843133355E-15, -1.219242935835426903E-16, 1.000000000000000000 ) ) ;
#46 = DATE_AND_TIME ( #200, #137 ) ;
#47 = DIRECTION ( 'NONE',  ( 0.0000000000000000000, -1.000000000000000000, 0.0000000000000000000 ) ) ;
#48 = AXIS2_PLACEMENT_3D ( 'NONE', #210, #146, #51 ) ;
#49 = MECHANICAL_CONTEXT ( 'NONE', #33, 'mechanical' ) ;
#50 = DIRECTION ( 'NONE',  ( 3.491481338843133355E-15, -1.224646799147353207E-16, 1.000000000000000000 ) ) ;
#51 = DIRECTION ( 'NONE',  ( 0.0000000000000000000, 1.000000000000000000, 0.0000000000000000000 ) ) ;
#52 = PERSON_AND_ORGANIZATION ( #20, #209 ) ;
#53 = EDGE_CURVE ( 'NONE', #204, #204, #36, .T. ) ;
#54 = APPROVAL_PERSON_ORGANIZATION ( #82, #157, #201 ) ;
#55 = CIRCLE ( 'NONE', #32, 0.3749999999999998890 ) ;
#56 = CYLINDRICAL_SURFACE ( 'NONE', #112, 1.499999999999989786 ) ;
#57 = EDGE_LOOP ( 'NONE', ( #118 ) ) ;
#58 = DIRECTION ( 'NONE',  ( -3.491481338843133355E-15, 1.224646799147353207E-16, -1.000000000000000000 ) ) ;
#59 = EDGE_LOOP ( 'NONE', ( #242 ) ) ;
#60 = VERTEX_POINT ( 'NONE', #153 ) ;
#61 = LOCAL_TIME ( 16, 45, 2.000000000000000000, #148 ) ;
#62 = FACE_OUTER_BOUND ( 'NONE', #170, .T. ) ;
#63 = PERSON_AND_ORGANIZATION ( #20, #209 ) ;
#64 = FACE_BOUND ( 'NONE', #17, .T. ) ;
#65 = DIRECTION ( 'NONE',  ( 3.491481338843133355E-15, -1.219242935835426903E-16, 1.000000000000000000 ) ) ;
#66 = DIRECTION ( 'NONE',  ( 4.275831445896958607E-31, 1.000000000000000000, 1.224646799147353207E-16 ) ) ;
#67 = DIRECTION ( 'NONE',  ( -4.275831445896958607E-31, -1.000000000000000000, -1.224646799147353207E-16 ) ) ;
#68 = DATE_TIME_ROLE ( 'creation_date' ) ;
#69 = CC_DESIGN_APPROVAL ( #157, ( #183 ) ) ;
#70 = SHAPE_DEFINITION_REPRESENTATION ( #92, #130 ) ;
#71 = AXIS2_PLACEMENT_3D ( 'NONE', #178, #83, #66 ) ;
#72 = CALENDAR_DATE ( 2021, 16, 11 ) ;
#73 = AXIS2_PLACEMENT_3D ( 'NONE', #212, #192, #67 ) ;
#74 = ADVANCED_FACE ( 'NONE', ( #229, #64 ), #132, .T. ) ;
#75 = FACE_OUTER_BOUND ( 'NONE', #42, .T. ) ;
#76 = EDGE_CURVE ( 'NONE', #185, #185, #98, .T. ) ;
#77 = ORIENTED_EDGE ( 'NONE', *, *, #39, .F. ) ;
#78 = FACE_OUTER_BOUND ( 'NONE', #99, .T. ) ;
#79 = DIRECTION ( 'NONE',  ( -4.275831445896958607E-31, -1.000000000000000000, -1.224646799147353207E-16 ) ) ;
#80 = COORDINATED_UNIVERSAL_TIME_OFFSET ( 1, 0, .AHEAD. ) ;
#81 = DIRECTION ( 'NONE',  ( 3.491481338843133355E-15, -1.224646799147353207E-16, 1.000000000000000000 ) ) ;
#82 = PERSON_AND_ORGANIZATION ( #20, #209 ) ;
#83 = DIRECTION ( 'NONE',  ( -3.491481338843133355E-15, 1.224646799147353207E-16, -1.000000000000000000 ) ) ;
#84 = APPROVAL ( #104, 'UNSPECIFIED' ) ;
#85 = APPLICATION_PROTOCOL_DEFINITION ( 'international standard', 'config_control_design', 1994, #184 ) ;
#86 = CARTESIAN_POINT ( 'NONE',  ( 6.633814543801950220E-15, -2.316561578087310228E-16, 1.899999999999999023 ) ) ;
#87 = LOCAL_TIME ( 16, 45, 2.000000000000000000, #109 ) ;
#88 = DATE_AND_TIME ( #218, #41 ) ;
#89 = DIRECTION ( 'NONE',  ( -4.256963957985708889E-31, -1.000000000000000000, -1.219242935835426903E-16 ) ) ;
#90 = CLOSED_SHELL ( 'NONE', ( #35, #4, #235 ) ) ;
#91 =( NAMED_UNIT ( * ) PLANE_ANGLE_UNIT ( ) SI_UNIT ( $, .RADIAN. ) );
#92 = PRODUCT_DEFINITION_SHAPE ( 'NONE', 'NONE',  #156 ) ;
#93 = EDGE_LOOP ( 'NONE', ( #113 ) ) ;
#94 = CC_DESIGN_PERSON_AND_ORGANIZATION_ASSIGNMENT ( #195, #27, ( #168 ) ) ;
#95 = FACE_OUTER_BOUND ( 'NONE', #57, .T. ) ;
#96 = VERTEX_POINT ( 'NONE', #187 ) ;
#97 = ORIENTED_EDGE ( 'NONE', *, *, #76, .F. ) ;
#98 = CIRCLE ( 'NONE', #165, 0.4431483474218597673 ) ;
#99 = EDGE_LOOP ( 'NONE', ( #225 ) ) ;
#100 = PLANE ( 'NONE',  #71 ) ;
#101 = CARTESIAN_POINT ( 'NONE',  ( -2.137917073001454058E-30, 7.498803648657679327E-32, -6.123237862442165323E-16 ) ) ;
#102 = DATE_TIME_ROLE ( 'classification_date' ) ;
#103 = CARTESIAN_POINT ( 'NONE',  ( 1.326762908760390170E-13, -4.653657836759941152E-15, 37.99999999999999289 ) ) ;
#104 = APPROVAL_STATUS ( 'not_yet_approved' ) ;
#105 = CARTESIAN_POINT ( 'NONE',  ( 0.0000000000000000000, 0.0000000000000000000, 0.0000000000000000000 ) ) ;
#106 = CC_DESIGN_APPROVAL ( #196, ( #156 ) ) ;
#107 = APPROVAL_ROLE ( '' ) ;
#108 = EDGE_CURVE ( 'NONE', #96, #96, #55, .T. ) ;
#109 = COORDINATED_UNIVERSAL_TIME_OFFSET ( 1, 0, .AHEAD. ) ;
#110 = PRODUCT_RELATED_PRODUCT_CATEGORY ( 'detail', '', ( #168 ) ) ;
#111 = CC_DESIGN_PERSON_AND_ORGANIZATION_ASSIGNMENT ( #123, #31, ( #188 ) ) ;
#112 = AXIS2_PLACEMENT_3D ( 'NONE', #155, #58, #243 ) ;
#113 = ORIENTED_EDGE ( 'NONE', *, *, #214, .F. ) ;
#114 = CARTESIAN_POINT ( 'NONE',  ( 1.316288464743860707E-13, 1.499999999999987566, 37.69999999999998153 ) ) ;
#115 = ORIENTED_EDGE ( 'NONE', *, *, #186, .F. ) ;
#116 = CARTESIAN_POINT ( 'NONE',  ( 2.221232298990047480E-14, -1.499999999999990674, 6.361862153689844313 ) ) ;
#117 = CONICAL_SURFACE ( 'NONE', #16, 2.499999999999991118, 0.2617993877991429130 ) ;
#118 = ORIENTED_EDGE ( 'NONE', *, *, #108, .T. ) ;
#119 = VERTEX_POINT ( 'NONE', #116 ) ;
#120 = CLOSED_SHELL ( 'NONE', ( #241, #74, #141, #202, #230, #205 ) ) ;
#121 = DIRECTION ( 'NONE',  ( 0.0000000000000000000, -1.000000000000000000, 0.0000000000000000000 ) ) ;
#122 = DIRECTION ( 'NONE',  ( -4.317661773764587743E-31, -1.000000000000000000, -1.219242935835426903E-16 ) ) ;
#123 = PERSON_AND_ORGANIZATION ( #20, #209 ) ;
#124 = PLANE ( 'NONE',  #169 ) ;
#125 = FACE_OUTER_BOUND ( 'NONE', #138, .T. ) ;
#126 = APPROVAL_ROLE ( '' ) ;
#127 = DIRECTION ( 'NONE',  ( 0.0000000000000000000, -1.000000000000000000, 0.0000000000000000000 ) ) ;
#128 =( NAMED_UNIT ( * ) SI_UNIT ( $, .STERADIAN. ) SOLID_ANGLE_UNIT ( ) );
#129 = DATE_AND_TIME ( #220, #61 ) ;
#130 = ADVANCED_BREP_SHAPE_REPRESENTATION ( '966125', ( #175, #8, #37 ), #152 ) ;
#131 = CC_DESIGN_SECURITY_CLASSIFICATION ( #183, ( #188 ) ) ;
#132 = CONICAL_SURFACE ( 'NONE', #19, 1.199999999999992184, 0.7853981633974338461 ) ;
#133 = VERTEX_POINT ( 'NONE', #134 ) ;
#134 = CARTESIAN_POINT ( 'NONE',  ( 6.633814543801950220E-15, -0.3749999999999998890, 1.899999999999999023 ) ) ;
#135 = VERTEX_POINT ( 'NONE', #18 ) ;
#136 = EDGE_LOOP ( 'NONE', ( #97 ) ) ;
#137 = LOCAL_TIME ( 16, 45, 2.000000000000000000, #216 ) ;
#138 = EDGE_LOOP ( 'NONE', ( #40 ) ) ;
#139 = DIRECTION ( 'NONE',  ( 3.491481338843133355E-15, -1.219242935835426903E-16, 1.000000000000000000 ) ) ;
#140 = APPROVAL_DATE_TIME ( #46, #84 ) ;
#141 = ADVANCED_FACE ( 'NONE', ( #176 ), #100, .F. ) ;
#142 = DIRECTION ( 'NONE',  ( -3.491481338843133355E-15, 1.219242935835426903E-16, -1.000000000000000000 ) ) ;
#143 = APPLICATION_PROTOCOL_DEFINITION ( 'international standard', 'config_control_design', 1994, #33 ) ;
#144 = DESIGN_CONTEXT ( 'detailed design', #184, 'design' ) ;
#145 = CIRCLE ( 'NONE', #189, 0.3749999999999996669 ) ;
#146 = DIRECTION ( 'NONE',  ( -3.491481338843133355E-15, 1.224646799147353207E-16, -1.000000000000000000 ) ) ;
#147 = PERSON_AND_ORGANIZATION ( #20, #209 ) ;
#148 = COORDINATED_UNIVERSAL_TIME_OFFSET ( 1, 0, .AHEAD. ) ;
#149 = TOROIDAL_SURFACE ( 'NONE', #203, 2.375000000000000000, 2.000000000000000000 ) ;
#150 = EDGE_LOOP ( 'NONE', ( #21 ) ) ;
#151 = ORIENTED_EDGE ( 'NONE', *, *, #186, .T. ) ;
#152 =( GEOMETRIC_REPRESENTATION_CONTEXT ( 3 ) GLOBAL_UNCERTAINTY_ASSIGNED_CONTEXT ( ( #219 ) ) GLOBAL_UNIT_ASSIGNED_CONTEXT ( ( #29, #91, #128 ) ) REPRESENTATION_CONTEXT ( 'NONE', 'WORKASPACE' ) );
#153 = CARTESIAN_POINT ( 'NONE',  ( 1.326762908760390170E-13, 1.199999999999987521, 37.99999999999999289 ) ) ;
#154 = EDGE_LOOP ( 'NONE', ( #38 ) ) ;
#155 = CARTESIAN_POINT ( 'NONE',  ( 0.0000000000000000000, 0.0000000000000000000, 0.0000000000000000000 ) ) ;
#156 = PRODUCT_DEFINITION ( 'UNKNOWN', '', #188, #144 ) ;
#157 = APPROVAL ( #161, 'UNSPECIFIED' ) ;
#158 = CARTESIAN_POINT ( 'NONE',  ( 6.633814543801950220E-15, -2.316561578087310228E-16, 1.899999999999999023 ) ) ;
#159 = APPROVAL_STATUS ( 'not_yet_approved' ) ;
#160 = DIRECTION ( 'NONE',  ( 3.491481338843133355E-15, -1.219242935835426903E-16, 1.000000000000000000 ) ) ;
#161 = APPROVAL_STATUS ( 'not_yet_approved' ) ;
#162 = DIRECTION ( 'NONE',  ( 0.0000000000000000000, 1.000000000000000000, 0.0000000000000000000 ) ) ;
#163 = DIRECTION ( 'NONE',  ( -3.491481338843133355E-15, 1.224646799147353207E-16, -1.000000000000000000 ) ) ;
#164 = PERSON_AND_ORGANIZATION ( #20, #209 ) ;
#165 = AXIS2_PLACEMENT_3D ( 'NONE', #5, #65, #47 ) ;
#166 = SECURITY_CLASSIFICATION_LEVEL ( 'unclassified' ) ;
#167 = APPROVAL_PERSON_ORGANIZATION ( #147, #196, #126 ) ;
#168 = PRODUCT ( '966125', '966125', '', ( #49 ) ) ;
#169 = AXIS2_PLACEMENT_3D ( 'NONE', #215, #50, #79 ) ;
#170 = EDGE_LOOP ( 'NONE', ( #14 ) ) ;
#171 = CIRCLE ( 'NONE', #238, 0.3749999999999996669 ) ;
#172 = AXIS2_PLACEMENT_3D ( 'NONE', #22, #163, #26 ) ;
#173 = EDGE_LOOP ( 'NONE', ( #13 ) ) ;
#174 = CC_DESIGN_APPROVAL ( #84, ( #188 ) ) ;
#175 = MANIFOLD_SOLID_BREP ( 'Corps-Déplacer/Copier1[1]', #120 ) ;
#176 = FACE_OUTER_BOUND ( 'NONE', #206, .T. ) ;
#177 = DIRECTION ( 'NONE',  ( 3.491481338843133355E-15, -1.219242935835426903E-16, 1.000000000000000000 ) ) ;
#178 = CARTESIAN_POINT ( 'NONE',  ( 1.326762908760390170E-13, 8.998558695971017012E-33, 37.99999999999999289 ) ) ;
#179 = DIRECTION ( 'NONE',  ( 3.491481338843133355E-15, -1.219242935835426903E-16, 1.000000000000000000 ) ) ;
#180 = APPROVAL_DATE_TIME ( #88, #196 ) ;
#181 = AXIS2_PLACEMENT_3D ( 'NONE', #9, #142, #194 ) ;
#182 = EDGE_LOOP ( 'NONE', ( #208 ) ) ;
#183 = SECURITY_CLASSIFICATION ( '', '', #166 ) ;
#184 = APPLICATION_CONTEXT ( 'configuration controlled 3d designs of mechanical parts and assemblies' ) ;
#185 = VERTEX_POINT ( 'NONE', #207 ) ;
#186 = EDGE_CURVE ( 'NONE', #60, #60, #223, .T. ) ;
#187 = CARTESIAN_POINT ( 'NONE',  ( -5.236481159736374185E-30, -0.3749999999999998890, -1.499787812548191572E-15 ) ) ;
#188 = PRODUCT_DEFINITION_FORMATION_WITH_SPECIFIED_SOURCE ( 'ANY', '', #168, .NOT_KNOWN. ) ;
#189 = AXIS2_PLACEMENT_3D ( 'NONE', #86, #160, #127 ) ;
#190 = CYLINDRICAL_SURFACE ( 'NONE', #11, 0.3749999999999997780 ) ;
#191 = FACE_OUTER_BOUND ( 'NONE', #173, .T. ) ;
#192 = DIRECTION ( 'NONE',  ( 3.491481338843133355E-15, -1.224646799147353207E-16, 1.000000000000000000 ) ) ;
#193 = DIRECTION ( 'NONE',  ( 0.0000000000000000000, 0.0000000000000000000, 1.000000000000000000 ) ) ;
#194 = DIRECTION ( 'NONE',  ( 0.0000000000000000000, -1.000000000000000000, 0.0000000000000000000 ) ) ;
#195 = PERSON_AND_ORGANIZATION ( #20, #209 ) ;
#196 = APPROVAL ( #159, 'UNSPECIFIED' ) ;
#197 = FACE_OUTER_BOUND ( 'NONE', #136, .T. ) ;
#198 = PERSON_AND_ORGANIZATION_ROLE ( 'creator' ) ;
#199 = DIRECTION ( 'NONE',  ( 3.491481338843133355E-15, -1.219242935835426903E-16, 1.000000000000000000 ) ) ;
#200 = CALENDAR_DATE ( 2021, 16, 11 ) ;
#201 = APPROVAL_ROLE ( '' ) ;
#202 = ADVANCED_FACE ( 'NONE', ( #232, #217 ), #117, .T. ) ;
#203 = AXIS2_PLACEMENT_3D ( 'NONE', #28, #45, #122 ) ;
#204 = VERTEX_POINT ( 'NONE', #114 ) ;
#205 = ADVANCED_FACE ( 'NONE', ( #227 ), #124, .F. ) ;
#206 = EDGE_LOOP ( 'NONE', ( #115 ) ) ;
#207 = CARTESIAN_POINT ( 'NONE',  ( 8.441138276027208178E-15, -0.4431483474218600449, 2.417638090205028067 ) ) ;
#208 = ORIENTED_EDGE ( 'NONE', *, *, #53, .F. ) ;
#209 = ORGANIZATION ( 'UNSPECIFIED', 'UNSPECIFIED', '' ) ;
#210 = CARTESIAN_POINT ( 'NONE',  ( 1.326762908760390170E-13, -4.653657836759941152E-15, 37.99999999999999289 ) ) ;
#211 = FACE_OUTER_BOUND ( 'NONE', #154, .T. ) ;
#212 = CARTESIAN_POINT ( 'NONE',  ( 6.633814543801952586E-15, -2.746645503629952126E-16, 1.899999999999999689 ) ) ;
#213 = DIRECTION ( 'NONE',  ( 1.000000000000000000, 0.0000000000000000000, 0.0000000000000000000 ) ) ;
#214 = EDGE_CURVE ( 'NONE', #135, #135, #171, .T. ) ;
#215 = CARTESIAN_POINT ( 'NONE',  ( 6.633814543801952586E-15, -2.746645503629952126E-16, 1.899999999999999689 ) ) ;
#216 = COORDINATED_UNIVERSAL_TIME_OFFSET ( 1, 0, .AHEAD. ) ;
#217 = FACE_OUTER_BOUND ( 'NONE', #59, .T. ) ;
#218 = CALENDAR_DATE ( 2021, 16, 11 ) ;
#219 = UNCERTAINTY_MEASURE_WITH_UNIT (LENGTH_MEASURE( 1.000000000000000082E-05 ), #29, 'distance_accuracy_value', 'NONE');
#220 = CALENDAR_DATE ( 2021, 16, 11 ) ;
#221 = APPROVAL_PERSON_ORGANIZATION ( #63, #84, #107 ) ;
#222 = DATE_AND_TIME ( #72, #87 ) ;
#223 = CIRCLE ( 'NONE', #48, 1.199999999999992184 ) ;
#224 = CC_DESIGN_PERSON_AND_ORGANIZATION_ASSIGNMENT ( #25, #237, ( #183 ) ) ;
#225 = ORIENTED_EDGE ( 'NONE', *, *, #34, .F. ) ;
#226 = CC_DESIGN_PERSON_AND_ORGANIZATION_ASSIGNMENT ( #164, #198, ( #156 ) ) ;
#227 = FACE_OUTER_BOUND ( 'NONE', #93, .T. ) ;
#228 = DATE_AND_TIME ( #234, #240 ) ;
#229 = FACE_OUTER_BOUND ( 'NONE', #182, .T. ) ;
#230 = ADVANCED_FACE ( 'NONE', ( #125, #197 ), #149, .F. ) ;
#231 = CC_DESIGN_DATE_AND_TIME_ASSIGNMENT ( #228, #68, ( #156 ) ) ;
#232 = FACE_BOUND ( 'NONE', #150, .T. ) ;
#233 = DIRECTION ( 'NONE',  ( -3.491481338843133355E-15, 1.224646799147353207E-16, -1.000000000000000000 ) ) ;
#234 = CALENDAR_DATE ( 2021, 16, 11 ) ;
#235 = ADVANCED_FACE ( 'NONE', ( #211 ), #24, .F. ) ;
#236 = PLANE ( 'NONE',  #73 ) ;
#237 = PERSON_AND_ORGANIZATION_ROLE ( 'classification_officer' ) ;
#238 = AXIS2_PLACEMENT_3D ( 'NONE', #158, #139, #30 ) ;
#239 = CC_DESIGN_DATE_AND_TIME_ASSIGNMENT ( #129, #102, ( #183 ) ) ;
#240 = LOCAL_TIME ( 16, 45, 2.000000000000000000, #80 ) ;
#241 = ADVANCED_FACE ( 'NONE', ( #191, #78 ), #56, .T. ) ;
#242 = ORIENTED_EDGE ( 'NONE', *, *, #34, .T. ) ;
#243 = DIRECTION ( 'NONE',  ( 4.275831445896959482E-31, 1.000000000000000000, 1.224646799147353207E-16 ) ) ;
ENDSEC;
END-ISO-10303-21;
