ISO-10303-21;
HEADER;
FILE_DESCRIPTION (( 'STEP AP203' ),
    '1' );
FILE_NAME ('966124.step',
    '2021-11-16T15:45:01',
    ( '' ),
    ( '' ),
    'SwSTEP 2.0',
    'SolidWorks 2019',
    '' );
FILE_SCHEMA (( 'CONFIG_CONTROL_DESIGN' ));
ENDSEC;

DATA;
#1 =( NAMED_UNIT ( * ) SI_UNIT ( $, .STERADIAN. ) SOLID_ANGLE_UNIT ( ) );
#2 = CC_DESIGN_APPROVAL ( #228, ( #79 ) ) ;
#3 = EDGE_CURVE ( 'NONE', #17, #17, #224, .T. ) ;
#4 = ADVANCED_FACE ( 'NONE', ( #53 ), #109, .T. ) ;
#5 = AXIS2_PLACEMENT_3D ( 'NONE', #76, #223, #14 ) ;
#6 = EDGE_LOOP ( 'NONE', ( #229 ) ) ;
#7 = EDGE_LOOP ( 'NONE', ( #191 ) ) ;
#8 = ADVANCED_FACE ( 'NONE', ( #163, #104 ), #160, .T. ) ;
#9 = DIRECTION ( 'NONE',  ( 3.491481338843133355E-15, -1.219242935835426903E-16, 1.000000000000000000 ) ) ;
#10 = CLOSED_SHELL ( 'NONE', ( #4, #8, #105 ) ) ;
#11 = FACE_OUTER_BOUND ( 'NONE', #174, .T. ) ;
#12 = CALENDAR_DATE ( 2021, 16, 11 ) ;
#13 = FACE_OUTER_BOUND ( 'NONE', #62, .T. ) ;
#14 = DIRECTION ( 'NONE',  ( -4.275831445896958607E-31, -1.000000000000000000, -1.224646799147353207E-16 ) ) ;
#15 = FACE_BOUND ( 'NONE', #61, .T. ) ;
#16 = APPLICATION_CONTEXT ( 'configuration controlled 3d designs of mechanical parts and assemblies' ) ;
#17 = VERTEX_POINT ( 'NONE', #70 ) ;
#18 = AXIS2_PLACEMENT_3D ( 'NONE', #95, #54, #130 ) ;
#19 = DIRECTION ( 'NONE',  ( -3.491481338843133355E-15, 1.224646799147353207E-16, -1.000000000000000000 ) ) ;
#20 = ADVANCED_FACE ( 'NONE', ( #32, #181 ), #221, .T. ) ;
#21 = CALENDAR_DATE ( 2021, 16, 11 ) ;
#22 = AXIS2_PLACEMENT_3D ( 'NONE', #196, #9, #179 ) ;
#23 = APPROVAL ( #112, 'UNSPECIFIED' ) ;
#24 = ORIENTED_EDGE ( 'NONE', *, *, #171, .T. ) ;
#25 = APPROVAL_PERSON_ORGANIZATION ( #222, #23, #114 ) ;
#26 = EDGE_LOOP ( 'NONE', ( #65 ) ) ;
#27 = EDGE_LOOP ( 'NONE', ( #45 ) ) ;
#28 = AXIS2_PLACEMENT_3D ( 'NONE', #242, #88, #86 ) ;
#29 = MANIFOLD_SOLID_BREP ( 'Corps-Déplacer/Copier1[2]', #10 ) ;
#30 = EDGE_CURVE ( 'NONE', #240, #240, #102, .T. ) ;
#31 = ORIENTED_EDGE ( 'NONE', *, *, #143, .T. ) ;
#32 = FACE_OUTER_BOUND ( 'NONE', #64, .T. ) ;
#33 = PLANE ( 'NONE',  #107 ) ;
#34 = AXIS2_PLACEMENT_3D ( 'NONE', #93, #202, #164 ) ;
#35 = DIRECTION ( 'NONE',  ( 3.491481338843133355E-15, -1.219242935835426903E-16, 1.000000000000000000 ) ) ;
#36 = DATE_TIME_ROLE ( 'creation_date' ) ;
#37 = PERSON_AND_ORGANIZATION_ROLE ( 'design_owner' ) ;
#38 = DIRECTION ( 'NONE',  ( 0.0000000000000000000, -1.000000000000000000, 0.0000000000000000000 ) ) ;
#39 = APPROVAL_STATUS ( 'not_yet_approved' ) ;
#40 = PERSON_AND_ORGANIZATION_ROLE ( 'creator' ) ;
#41 = DATE_TIME_ROLE ( 'classification_date' ) ;
#42 = ORIENTED_EDGE ( 'NONE', *, *, #3, .T. ) ;
#43 = AXIS2_PLACEMENT_3D ( 'NONE', #140, #176, #167 ) ;
#44 = EDGE_LOOP ( 'NONE', ( #212 ) ) ;
#45 = ORIENTED_EDGE ( 'NONE', *, *, #3, .F. ) ;
#46 = CIRCLE ( 'NONE', #135, 1.199999999999992184 ) ;
#47 = CARTESIAN_POINT ( 'NONE',  ( 6.110092342975480216E-15, 0.0000000000000000000, 1.749999999999999112 ) ) ;
#48 = FACE_OUTER_BOUND ( 'NONE', #44, .T. ) ;
#49 = APPLICATION_PROTOCOL_DEFINITION ( 'international standard', 'config_control_design', 1994, #16 ) ;
#50 = DIRECTION ( 'NONE',  ( 3.491481338843133355E-15, -1.219242935835426903E-16, 1.000000000000000000 ) ) ;
#51 = VERTEX_POINT ( 'NONE', #180 ) ;
#52 = FACE_BOUND ( 'NONE', #192, .T. ) ;
#53 = FACE_OUTER_BOUND ( 'NONE', #156, .T. ) ;
#54 = DIRECTION ( 'NONE',  ( 3.491481338843133355E-15, -1.219242935835426903E-16, 1.000000000000000000 ) ) ;
#55 = CC_DESIGN_PERSON_AND_ORGANIZATION_ASSIGNMENT ( #218, #40, ( #79 ) ) ;
#56 = PERSON_AND_ORGANIZATION_ROLE ( 'classification_officer' ) ;
#57 = CC_DESIGN_PERSON_AND_ORGANIZATION_ASSIGNMENT ( #161, #37, ( #215 ) ) ;
#58 = APPROVAL_ROLE ( '' ) ;
#59 = PERSON_AND_ORGANIZATION ( #230, #184 ) ;
#60 = ADVANCED_FACE ( 'NONE', ( #124 ), #120, .F. ) ;
#61 = EDGE_LOOP ( 'NONE', ( #154 ) ) ;
#62 = EDGE_LOOP ( 'NONE', ( #42 ) ) ;
#63 = AXIS2_PLACEMENT_3D ( 'NONE', #91, #75, #77 ) ;
#64 = EDGE_LOOP ( 'NONE', ( #118 ) ) ;
#65 = ORIENTED_EDGE ( 'NONE', *, *, #30, .F. ) ;
#66 = CC_DESIGN_DATE_AND_TIME_ASSIGNMENT ( #72, #36, ( #79 ) ) ;
#67 = DIRECTION ( 'NONE',  ( -4.275831445896958607E-31, -1.000000000000000000, -1.224646799147353207E-16 ) ) ;
#68 = DIRECTION ( 'NONE',  ( 0.0000000000000000000, 1.000000000000000000, 0.0000000000000000000 ) ) ;
#69 = DIRECTION ( 'NONE',  ( 0.0000000000000000000, -1.000000000000000000, 0.0000000000000000000 ) ) ;
#70 = CARTESIAN_POINT ( 'NONE',  ( 2.201436043283003352E-14, -1.499999999999990674, 6.305163423879064588 ) ) ;
#71 = FACE_OUTER_BOUND ( 'NONE', #173, .T. ) ;
#72 = DATE_AND_TIME ( #12, #197 ) ;
#73 = AXIS2_PLACEMENT_3D ( 'NONE', #106, #142, #69 ) ;
#74 = DIRECTION ( 'NONE',  ( 3.491481338843133355E-15, -1.219242935835426903E-16, 1.000000000000000000 ) ) ;
#75 = DIRECTION ( 'NONE',  ( 0.0000000000000000000, 0.0000000000000000000, 1.000000000000000000 ) ) ;
#76 = CARTESIAN_POINT ( 'NONE',  ( 6.110092342975482583E-15, -2.529805069132850746E-16, 1.749999999999999778 ) ) ;
#77 = DIRECTION ( 'NONE',  ( 1.000000000000000000, 0.0000000000000000000, 0.0000000000000000000 ) ) ;
#78 = PERSON_AND_ORGANIZATION_ROLE ( 'creator' ) ;
#79 = PRODUCT_DEFINITION ( 'UNKNOWN', '', #100, #162 ) ;
#80 = AXIS2_PLACEMENT_3D ( 'NONE', #47, #35, #219 ) ;
#81 = CALENDAR_DATE ( 2021, 16, 11 ) ;
#82 = LOCAL_TIME ( 16, 45, 1.000000000000000000, #131 ) ;
#83 = COORDINATED_UNIVERSAL_TIME_OFFSET ( 1, 0, .AHEAD. ) ;
#84 = ORIENTED_EDGE ( 'NONE', *, *, #30, .T. ) ;
#85 = TOROIDAL_SURFACE ( 'NONE', #80, 2.350000000000000089, 2.000000000000000000 ) ;
#86 = DIRECTION ( 'NONE',  ( 0.0000000000000000000, -1.000000000000000000, 0.0000000000000000000 ) ) ;
#87 = LOCAL_TIME ( 16, 45, 1.000000000000000000, #97 ) ;
#88 = DIRECTION ( 'NONE',  ( 3.491481338843133355E-15, -1.219242935835426903E-16, 1.000000000000000000 ) ) ;
#89 = CC_DESIGN_DATE_AND_TIME_ASSIGNMENT ( #188, #41, ( #125 ) ) ;
#90 = DIRECTION ( 'NONE',  ( -4.256963957985708889E-31, -1.000000000000000000, -1.219242935835426903E-16 ) ) ;
#91 = CARTESIAN_POINT ( 'NONE',  ( 0.0000000000000000000, 0.0000000000000000000, 0.0000000000000000000 ) ) ;
#92 = UNCERTAINTY_MEASURE_WITH_UNIT (LENGTH_MEASURE( 1.000000000000000082E-05 ), #128, 'distance_accuracy_value', 'NONE');
#93 = CARTESIAN_POINT ( 'NONE',  ( 1.326762908760390170E-13, -4.653657836759941152E-15, 37.99999999999999289 ) ) ;
#94 = AXIS2_PLACEMENT_3D ( 'NONE', #216, #74, #38 ) ;
#95 = CARTESIAN_POINT ( 'NONE',  ( -5.066202601416946074E-30, 1.769143562238066267E-31, -1.451018095114774338E-15 ) ) ;
#96 = CARTESIAN_POINT ( 'NONE',  ( 1.326762908760390170E-13, 1.199999999999987521, 37.99999999999999289 ) ) ;
#97 = COORDINATED_UNIVERSAL_TIME_OFFSET ( 1, 0, .AHEAD. ) ;
#98 = ADVANCED_FACE ( 'NONE', ( #11, #71 ), #85, .F. ) ;
#99 = AXIS2_PLACEMENT_3D ( 'NONE', #111, #19, #183 ) ;
#100 = PRODUCT_DEFINITION_FORMATION_WITH_SPECIFIED_SOURCE ( 'ANY', '', #215, .NOT_KNOWN. ) ;
#101 = ADVANCED_FACE ( 'NONE', ( #48, #15 ), #117, .T. ) ;
#102 = CIRCLE ( 'NONE', #211, 0.3500000000000002554 ) ;
#103 = EDGE_LOOP ( 'NONE', ( #232 ) ) ;
#104 = FACE_OUTER_BOUND ( 'NONE', #6, .T. ) ;
#105 = ADVANCED_FACE ( 'NONE', ( #127 ), #33, .F. ) ;
#106 = CARTESIAN_POINT ( 'NONE',  ( 2.201436043283003352E-14, -7.687525963852463999E-16, 6.305163423879064588 ) ) ;
#107 = AXIS2_PLACEMENT_3D ( 'NONE', #234, #217, #67 ) ;
#108 = DIRECTION ( 'NONE',  ( -4.275831445896958607E-31, -1.000000000000000000, -1.224646799147353207E-16 ) ) ;
#109 = PLANE ( 'NONE',  #190 ) ;
#110 = PERSON_AND_ORGANIZATION ( #230, #184 ) ;
#111 = CARTESIAN_POINT ( 'NONE',  ( 1.316288464743860707E-13, -4.616918432785519503E-15, 37.69999999999998153 ) ) ;
#112 = APPROVAL_STATUS ( 'not_yet_approved' ) ;
#113 = CC_DESIGN_SECURITY_CLASSIFICATION ( #125, ( #100 ) ) ;
#114 = APPROVAL_ROLE ( '' ) ;
#115 = MANIFOLD_SOLID_BREP ( 'Corps-Déplacer/Copier1[1]', #149 ) ;
#116 = CIRCLE ( 'NONE', #99, 1.499999999999992006 ) ;
#117 = CONICAL_SURFACE ( 'NONE', #34, 1.199999999999992184, 0.7853981633974338461 ) ;
#118 = ORIENTED_EDGE ( 'NONE', *, *, #172, .T. ) ;
#119 = AXIS2_PLACEMENT_3D ( 'NONE', #175, #144, #139 ) ;
#120 = PLANE ( 'NONE',  #43 ) ;
#121 = PRODUCT_RELATED_PRODUCT_CATEGORY ( 'detail', '', ( #215 ) ) ;
#122 = DIRECTION ( 'NONE',  ( -3.491481338843133355E-15, 1.224646799147353207E-16, -1.000000000000000000 ) ) ;
#123 = DATE_AND_TIME ( #178, #82 ) ;
#124 = FACE_OUTER_BOUND ( 'NONE', #7, .T. ) ;
#125 = SECURITY_CLASSIFICATION ( '', '', #136 ) ;
#126 = COORDINATED_UNIVERSAL_TIME_OFFSET ( 1, 0, .AHEAD. ) ;
#127 = FACE_OUTER_BOUND ( 'NONE', #103, .T. ) ;
#128 =( LENGTH_UNIT ( ) NAMED_UNIT ( * ) SI_UNIT ( .MILLI., .METRE. ) );
#129 = DIRECTION ( 'NONE',  ( 3.491481338843133355E-15, -1.219242935835426903E-16, 1.000000000000000000 ) ) ;
#130 = DIRECTION ( 'NONE',  ( -4.256963957985700131E-31, -1.000000000000000000, -1.219242935835424684E-16 ) ) ;
#131 = COORDINATED_UNIVERSAL_TIME_OFFSET ( 1, 0, .AHEAD. ) ;
#132 = CIRCLE ( 'NONE', #94, 0.4181483474218603558 ) ;
#133 = SHAPE_DEFINITION_REPRESENTATION ( #233, #141 ) ;
#134 = PERSON_AND_ORGANIZATION ( #230, #184 ) ;
#135 = AXIS2_PLACEMENT_3D ( 'NONE', #158, #122, #68 ) ;
#136 = SECURITY_CLASSIFICATION_LEVEL ( 'unclassified' ) ;
#137 = APPROVAL_STATUS ( 'not_yet_approved' ) ;
#138 = ORIENTED_EDGE ( 'NONE', *, *, #201, .T. ) ;
#139 = DIRECTION ( 'NONE',  ( 4.275831445896959482E-31, 1.000000000000000000, 1.224646799147353207E-16 ) ) ;
#140 = CARTESIAN_POINT ( 'NONE',  ( 1.326762908760390170E-13, 8.998558695971017012E-33, 37.99999999999999289 ) ) ;
#141 = ADVANCED_BREP_SHAPE_REPRESENTATION ( '966124', ( #115, #29, #63 ), #165 ) ;
#142 = DIRECTION ( 'NONE',  ( -3.491481338843133355E-15, 1.219242935835426903E-16, -1.000000000000000000 ) ) ;
#143 = EDGE_CURVE ( 'NONE', #51, #51, #152, .T. ) ;
#144 = DIRECTION ( 'NONE',  ( -3.491481338843133355E-15, 1.224646799147353207E-16, -1.000000000000000000 ) ) ;
#145 = LOCAL_TIME ( 16, 45, 1.000000000000000000, #83 ) ;
#146 =( NAMED_UNIT ( * ) PLANE_ANGLE_UNIT ( ) SI_UNIT ( $, .RADIAN. ) );
#147 = PLANE ( 'NONE',  #5 ) ;
#148 = PERSON_AND_ORGANIZATION ( #230, #184 ) ;
#149 = CLOSED_SHELL ( 'NONE', ( #20, #101, #60, #157, #98, #220 ) ) ;
#150 = CC_DESIGN_PERSON_AND_ORGANIZATION_ASSIGNMENT ( #225, #56, ( #125 ) ) ;
#151 = APPROVAL_DATE_TIME ( #226, #23 ) ;
#152 = CIRCLE ( 'NONE', #22, 0.3500000000000002554 ) ;
#153 = APPROVAL_DATE_TIME ( #189, #236 ) ;
#154 = ORIENTED_EDGE ( 'NONE', *, *, #168, .T. ) ;
#155 = APPROVAL_PERSON_ORGANIZATION ( #148, #236, #58 ) ;
#156 = EDGE_LOOP ( 'NONE', ( #31 ) ) ;
#157 = ADVANCED_FACE ( 'NONE', ( #52, #13 ), #241, .T. ) ;
#158 = CARTESIAN_POINT ( 'NONE',  ( 1.326762908760390170E-13, -4.653657836759941152E-15, 37.99999999999999289 ) ) ;
#159 = LOCAL_TIME ( 16, 45, 1.000000000000000000, #207 ) ;
#160 = CYLINDRICAL_SURFACE ( 'NONE', #177, 0.3500000000000001443 ) ;
#161 = PERSON_AND_ORGANIZATION ( #230, #184 ) ;
#162 = DESIGN_CONTEXT ( 'detailed design', #209, 'design' ) ;
#163 = FACE_OUTER_BOUND ( 'NONE', #213, .T. ) ;
#164 = DIRECTION ( 'NONE',  ( 0.0000000000000000000, 1.000000000000000000, 0.0000000000000000000 ) ) ;
#165 =( GEOMETRIC_REPRESENTATION_CONTEXT ( 3 ) GLOBAL_UNCERTAINTY_ASSIGNED_CONTEXT ( ( #92 ) ) GLOBAL_UNIT_ASSIGNED_CONTEXT ( ( #128, #146, #1 ) ) REPRESENTATION_CONTEXT ( 'NONE', 'WORKASPACE' ) );
#166 = APPLICATION_PROTOCOL_DEFINITION ( 'international standard', 'config_control_design', 1994, #209 ) ;
#167 = DIRECTION ( 'NONE',  ( 4.275831445896958607E-31, 1.000000000000000000, 1.224646799147353207E-16 ) ) ;
#168 = EDGE_CURVE ( 'NONE', #185, #185, #46, .T. ) ;
#169 = CARTESIAN_POINT ( 'NONE',  ( 7.917416075200738175E-15, -0.4181483474218606333, 2.267638090205028156 ) ) ;
#170 = CALENDAR_DATE ( 2021, 16, 11 ) ;
#171 = EDGE_CURVE ( 'NONE', #195, #195, #132, .T. ) ;
#172 = EDGE_CURVE ( 'NONE', #200, #200, #116, .T. ) ;
#173 = EDGE_LOOP ( 'NONE', ( #210 ) ) ;
#174 = EDGE_LOOP ( 'NONE', ( #84 ) ) ;
#175 = CARTESIAN_POINT ( 'NONE',  ( 0.0000000000000000000, 0.0000000000000000000, 0.0000000000000000000 ) ) ;
#176 = DIRECTION ( 'NONE',  ( -3.491481338843133355E-15, 1.224646799147353207E-16, -1.000000000000000000 ) ) ;
#177 = AXIS2_PLACEMENT_3D ( 'NONE', #239, #129, #90 ) ;
#178 = CALENDAR_DATE ( 2021, 16, 11 ) ;
#179 = DIRECTION ( 'NONE',  ( 0.0000000000000000000, -1.000000000000000000, 0.0000000000000000000 ) ) ;
#180 = CARTESIAN_POINT ( 'NONE',  ( 6.110092342975480216E-15, -0.3500000000000004774, 1.749999999999999112 ) ) ;
#181 = FACE_OUTER_BOUND ( 'NONE', #27, .T. ) ;
#182 = VERTEX_POINT ( 'NONE', #235 ) ;
#183 = DIRECTION ( 'NONE',  ( 0.0000000000000000000, 1.000000000000000000, 0.0000000000000000000 ) ) ;
#184 = ORGANIZATION ( 'UNSPECIFIED', 'UNSPECIFIED', '' ) ;
#185 = VERTEX_POINT ( 'NONE', #96 ) ;
#186 = CARTESIAN_POINT ( 'NONE',  ( 6.110092342975480216E-15, -0.3500000000000004774, 1.749999999999999112 ) ) ;
#187 = CIRCLE ( 'NONE', #18, 0.3500000000000000333 ) ;
#188 = DATE_AND_TIME ( #170, #159 ) ;
#189 = DATE_AND_TIME ( #81, #145 ) ;
#190 = AXIS2_PLACEMENT_3D ( 'NONE', #237, #193, #108 ) ;
#191 = ORIENTED_EDGE ( 'NONE', *, *, #168, .F. ) ;
#192 = EDGE_LOOP ( 'NONE', ( #24 ) ) ;
#193 = DIRECTION ( 'NONE',  ( 3.491481338843133355E-15, -1.224646799147353207E-16, 1.000000000000000000 ) ) ;
#194 = CARTESIAN_POINT ( 'NONE',  ( 6.110092342975480216E-15, -2.133675137711996094E-16, 1.749999999999999112 ) ) ;
#195 = VERTEX_POINT ( 'NONE', #169 ) ;
#196 = CARTESIAN_POINT ( 'NONE',  ( 6.110092342975480216E-15, -2.133675137711996094E-16, 1.749999999999999112 ) ) ;
#197 = LOCAL_TIME ( 16, 45, 1.000000000000000000, #126 ) ;
#198 = MECHANICAL_CONTEXT ( 'NONE', #16, 'mechanical' ) ;
#199 = DIRECTION ( 'NONE',  ( 0.0000000000000000000, -1.000000000000000000, 0.0000000000000000000 ) ) ;
#200 = VERTEX_POINT ( 'NONE', #203 ) ;
#201 = EDGE_CURVE ( 'NONE', #182, #182, #187, .T. ) ;
#202 = DIRECTION ( 'NONE',  ( -3.491481338843133355E-15, 1.224646799147353207E-16, -1.000000000000000000 ) ) ;
#203 = CARTESIAN_POINT ( 'NONE',  ( 1.316288464743860707E-13, 1.499999999999987566, 37.69999999999998153 ) ) ;
#204 = CC_DESIGN_PERSON_AND_ORGANIZATION_ASSIGNMENT ( #59, #78, ( #100 ) ) ;
#205 = APPROVAL_PERSON_ORGANIZATION ( #110, #228, #206 ) ;
#206 = APPROVAL_ROLE ( '' ) ;
#207 = COORDINATED_UNIVERSAL_TIME_OFFSET ( 1, 0, .AHEAD. ) ;
#208 = CC_DESIGN_PERSON_AND_ORGANIZATION_ASSIGNMENT ( #134, #227, ( #100 ) ) ;
#209 = APPLICATION_CONTEXT ( 'configuration controlled 3d designs of mechanical parts and assemblies' ) ;
#210 = ORIENTED_EDGE ( 'NONE', *, *, #171, .F. ) ;
#211 = AXIS2_PLACEMENT_3D ( 'NONE', #194, #50, #199 ) ;
#212 = ORIENTED_EDGE ( 'NONE', *, *, #172, .F. ) ;
#213 = EDGE_LOOP ( 'NONE', ( #138 ) ) ;
#214 = CC_DESIGN_APPROVAL ( #236, ( #125 ) ) ;
#215 = PRODUCT ( '966124', '966124', '', ( #198 ) ) ;
#216 = CARTESIAN_POINT ( 'NONE',  ( 7.917416075200738175E-15, -2.764801722513818837E-16, 2.267638090205028156 ) ) ;
#217 = DIRECTION ( 'NONE',  ( 3.491481338843133355E-15, -1.224646799147353207E-16, 1.000000000000000000 ) ) ;
#218 = PERSON_AND_ORGANIZATION ( #230, #184 ) ;
#219 = DIRECTION ( 'NONE',  ( -4.318010611786305654E-31, -1.000000000000000000, -1.219242935835426903E-16 ) ) ;
#220 = ADVANCED_FACE ( 'NONE', ( #243 ), #147, .F. ) ;
#221 = CYLINDRICAL_SURFACE ( 'NONE', #119, 1.499999999999989786 ) ;
#222 = PERSON_AND_ORGANIZATION ( #230, #184 ) ;
#223 = DIRECTION ( 'NONE',  ( 3.491481338843133355E-15, -1.224646799147353207E-16, 1.000000000000000000 ) ) ;
#224 = CIRCLE ( 'NONE', #73, 1.499999999999989786 ) ;
#225 = PERSON_AND_ORGANIZATION ( #230, #184 ) ;
#226 = DATE_AND_TIME ( #21, #87 ) ;
#227 = PERSON_AND_ORGANIZATION_ROLE ( 'design_supplier' ) ;
#228 = APPROVAL ( #39, 'UNSPECIFIED' ) ;
#229 = ORIENTED_EDGE ( 'NONE', *, *, #143, .F. ) ;
#230 = PERSON ( 'UNSPECIFIED', 'UNSPECIFIED', 'UNSPECIFIED', ('UNSPECIFIED'), ('UNSPECIFIED'), ('UNSPECIFIED') ) ;
#231 = CC_DESIGN_APPROVAL ( #23, ( #100 ) ) ;
#232 = ORIENTED_EDGE ( 'NONE', *, *, #201, .F. ) ;
#233 = PRODUCT_DEFINITION_SHAPE ( 'NONE', 'NONE',  #79 ) ;
#234 = CARTESIAN_POINT ( 'NONE',  ( -2.137917073001454058E-30, 7.498803648657679327E-32, -6.123237862442165323E-16 ) ) ;
#235 = CARTESIAN_POINT ( 'NONE',  ( -5.215196339946445408E-30, -0.3500000000000000333, -1.493691597869014270E-15 ) ) ;
#236 = APPROVAL ( #137, 'UNSPECIFIED' ) ;
#237 = CARTESIAN_POINT ( 'NONE',  ( 6.110092342975482583E-15, -2.529805069132850746E-16, 1.749999999999999778 ) ) ;
#238 = APPROVAL_DATE_TIME ( #123, #228 ) ;
#239 = CARTESIAN_POINT ( 'NONE',  ( 0.0000000000000000000, 0.0000000000000000000, 0.0000000000000000000 ) ) ;
#240 = VERTEX_POINT ( 'NONE', #186 ) ;
#241 = CONICAL_SURFACE ( 'NONE', #28, 2.499999999999991562, 0.2617993877991429685 ) ;
#242 = CARTESIAN_POINT ( 'NONE',  ( 3.504474618307156763E-14, -1.223780254715984132E-15, 10.03721423144804348 ) ) ;
#243 = FACE_OUTER_BOUND ( 'NONE', #26, .T. ) ;
ENDSEC;
END-ISO-10303-21;
