ISO-10303-21;
HEADER;
FILE_DESCRIPTION (( 'STEP AP203' ),
    '1' );
FILE_NAME ('966123.step',
    '2021-11-16T15:45:01',
    ( '' ),
    ( '' ),
    'SwSTEP 2.0',
    'SolidWorks 2019',
    '' );
FILE_SCHEMA (( 'CONFIG_CONTROL_DESIGN' ));
ENDSEC;

DATA;
#1 = FACE_BOUND ( 'NONE', #83, .T. ) ;
#2 = PRODUCT_DEFINITION ( 'UNKNOWN', '', #85, #192 ) ;
#3 = COORDINATED_UNIVERSAL_TIME_OFFSET ( 1, 0, .AHEAD. ) ;
#4 = CARTESIAN_POINT ( 'NONE',  ( 7.742842008258579929E-15, -0.3931483474218603336, 2.217638090205027890 ) ) ;
#5 = COORDINATED_UNIVERSAL_TIME_OFFSET ( 1, 0, .AHEAD. ) ;
#6 = MECHANICAL_CONTEXT ( 'NONE', #233, 'mechanical' ) ;
#7 = APPROVAL ( #119, 'UNSPECIFIED' ) ;
#8 = ORIENTED_EDGE ( 'NONE', *, *, #96, .F. ) ;
#9 = CONICAL_SURFACE ( 'NONE', #142, 1.199999999999992184, 0.7853981633974338461 ) ;
#10 = AXIS2_PLACEMENT_3D ( 'NONE', #158, #31, #178 ) ;
#11 = ORIENTED_EDGE ( 'NONE', *, *, #153, .T. ) ;
#12 = EDGE_LOOP ( 'NONE', ( #237 ) ) ;
#13 = EDGE_LOOP ( 'NONE', ( #137 ) ) ;
#14 = FACE_OUTER_BOUND ( 'NONE', #67, .T. ) ;
#15 = CARTESIAN_POINT ( 'NONE',  ( 5.935518276033323549E-15, -0.3250000000000001776, 1.699999999999999067 ) ) ;
#16 = DIRECTION ( 'NONE',  ( -3.491481338843133355E-15, 1.224646799147353207E-16, -1.000000000000000000 ) ) ;
#17 = CARTESIAN_POINT ( 'NONE',  ( 2.216554600964392452E-14, -1.499999999999990674, 6.348464694068292502 ) ) ;
#18 = CYLINDRICAL_SURFACE ( 'NONE', #102, 0.3250000000000000111 ) ;
#19 = CC_DESIGN_SECURITY_CLASSIFICATION ( #200, ( #85 ) ) ;
#20 = FACE_OUTER_BOUND ( 'NONE', #43, .T. ) ;
#21 = LOCAL_TIME ( 16, 45, 1.000000000000000000, #191 ) ;
#22 = AXIS2_PLACEMENT_3D ( 'NONE', #59, #16, #88 ) ;
#23 = VERTEX_POINT ( 'NONE', #34 ) ;
#24 = DATE_AND_TIME ( #134, #157 ) ;
#25 = LOCAL_TIME ( 16, 45, 1.000000000000000000, #151 ) ;
#26 = CIRCLE ( 'NONE', #86, 0.3250000000000000111 ) ;
#27 = CLOSED_SHELL ( 'NONE', ( #214, #84, #234, #128, #226, #42 ) ) ;
#28 = EDGE_LOOP ( 'NONE', ( #138 ) ) ;
#29 = DIRECTION ( 'NONE',  ( 0.0000000000000000000, -1.000000000000000000, 0.0000000000000000000 ) ) ;
#30 = ORGANIZATION ( 'UNSPECIFIED', 'UNSPECIFIED', '' ) ;
#31 = DIRECTION ( 'NONE',  ( -3.491481338843133355E-15, 1.224646799147353207E-16, -1.000000000000000000 ) ) ;
#32 = DIRECTION ( 'NONE',  ( -4.256963957985718523E-31, -1.000000000000000000, -1.219242935835428628E-16 ) ) ;
#33 = EDGE_CURVE ( 'NONE', #72, #72, #166, .T. ) ;
#34 = CARTESIAN_POINT ( 'NONE',  ( 1.316288464743860707E-13, 1.499999999999987566, 37.69999999999998153 ) ) ;
#35 = FACE_OUTER_BOUND ( 'NONE', #217, .T. ) ;
#36 = DATE_AND_TIME ( #209, #90 ) ;
#37 = APPROVAL_DATE_TIME ( #147, #168 ) ;
#38 = SECURITY_CLASSIFICATION_LEVEL ( 'unclassified' ) ;
#39 = APPROVAL ( #116, 'UNSPECIFIED' ) ;
#40 = DATE_TIME_ROLE ( 'classification_date' ) ;
#41 = MANIFOLD_SOLID_BREP ( 'Corps-Déplacer/Copier1[2]', #120 ) ;
#42 = ADVANCED_FACE ( 'NONE', ( #20 ), #69, .F. ) ;
#43 = EDGE_LOOP ( 'NONE', ( #48 ) ) ;
#44 = EDGE_LOOP ( 'NONE', ( #194 ) ) ;
#45 = UNCERTAINTY_MEASURE_WITH_UNIT (LENGTH_MEASURE( 1.000000000000000082E-05 ), #228, 'distance_accuracy_value', 'NONE');
#46 = EDGE_LOOP ( 'NONE', ( #123 ) ) ;
#47 = LOCAL_TIME ( 16, 45, 1.000000000000000000, #5 ) ;
#48 = ORIENTED_EDGE ( 'NONE', *, *, #145, .F. ) ;
#49 = CARTESIAN_POINT ( 'NONE',  ( 5.935518276033323549E-15, -2.072712990920224551E-16, 1.699999999999999067 ) ) ;
#50 = PLANE ( 'NONE',  #211 ) ;
#51 = CC_DESIGN_DATE_AND_TIME_ASSIGNMENT ( #36, #79, ( #2 ) ) ;
#52 = AXIS2_PLACEMENT_3D ( 'NONE', #109, #144, #70 ) ;
#53 = DIRECTION ( 'NONE',  ( 0.0000000000000000000, -1.000000000000000000, 0.0000000000000000000 ) ) ;
#54 = AXIS2_PLACEMENT_3D ( 'NONE', #57, #220, #131 ) ;
#55 = DIRECTION ( 'NONE',  ( 3.491481338843133355E-15, -1.219242935835426903E-16, 1.000000000000000000 ) ) ;
#56 = CC_DESIGN_PERSON_AND_ORGANIZATION_ASSIGNMENT ( #133, #100, ( #85 ) ) ;
#57 = CARTESIAN_POINT ( 'NONE',  ( 5.935518276033325915E-15, -2.457524924300483455E-16, 1.699999999999999734 ) ) ;
#58 =( NAMED_UNIT ( * ) PLANE_ANGLE_UNIT ( ) SI_UNIT ( $, .RADIAN. ) );
#59 = CARTESIAN_POINT ( 'NONE',  ( 1.326762908760390170E-13, -4.653657836759941152E-15, 37.99999999999999289 ) ) ;
#60 = APPLICATION_PROTOCOL_DEFINITION ( 'international standard', 'config_control_design', 1994, #233 ) ;
#61 = PERSON_AND_ORGANIZATION ( #107, #30 ) ;
#62 = AXIS2_PLACEMENT_3D ( 'NONE', #141, #241, #32 ) ;
#63 = VERTEX_POINT ( 'NONE', #135 ) ;
#64 = APPLICATION_CONTEXT ( 'configuration controlled 3d designs of mechanical parts and assemblies' ) ;
#65 = APPROVAL_PERSON_ORGANIZATION ( #208, #39, #183 ) ;
#66 = CIRCLE ( 'NONE', #22, 1.199999999999992184 ) ;
#67 = EDGE_LOOP ( 'NONE', ( #8 ) ) ;
#68 = CC_DESIGN_APPROVAL ( #39, ( #85 ) ) ;
#69 = PLANE ( 'NONE',  #52 ) ;
#70 = DIRECTION ( 'NONE',  ( -4.275831445896958607E-31, -1.000000000000000000, -1.224646799147353207E-16 ) ) ;
#71 = CARTESIAN_POINT ( 'NONE',  ( 0.0000000000000000000, 0.0000000000000000000, 0.0000000000000000000 ) ) ;
#72 = VERTEX_POINT ( 'NONE', #222 ) ;
#73 = DIRECTION ( 'NONE',  ( 3.491481338843133355E-15, -1.219242935835426903E-16, 1.000000000000000000 ) ) ;
#74 = CARTESIAN_POINT ( 'NONE',  ( 3.519593175988546178E-14, -1.229059731495075759E-15, 10.08051550163727228 ) ) ;
#75 = PERSON_AND_ORGANIZATION ( #107, #30 ) ;
#76 = APPROVAL_DATE_TIME ( #24, #39 ) ;
#77 = CALENDAR_DATE ( 2021, 16, 11 ) ;
#78 = CALENDAR_DATE ( 2021, 16, 11 ) ;
#79 = DATE_TIME_ROLE ( 'creation_date' ) ;
#80 = AXIS2_PLACEMENT_3D ( 'NONE', #95, #130, #53 ) ;
#81 = EDGE_LOOP ( 'NONE', ( #216 ) ) ;
#82 = CC_DESIGN_DATE_AND_TIME_ASSIGNMENT ( #232, #40, ( #200 ) ) ;
#83 = EDGE_LOOP ( 'NONE', ( #106 ) ) ;
#84 = ADVANCED_FACE ( 'NONE', ( #89, #113 ), #9, .T. ) ;
#85 = PRODUCT_DEFINITION_FORMATION_WITH_SPECIFIED_SOURCE ( 'ANY', '', #170, .NOT_KNOWN. ) ;
#86 = AXIS2_PLACEMENT_3D ( 'NONE', #219, #125, #29 ) ;
#87 = CYLINDRICAL_SURFACE ( 'NONE', #98, 1.499999999999989786 ) ;
#88 = DIRECTION ( 'NONE',  ( 0.0000000000000000000, 1.000000000000000000, 0.0000000000000000000 ) ) ;
#89 = FACE_OUTER_BOUND ( 'NONE', #236, .T. ) ;
#90 = LOCAL_TIME ( 16, 45, 1.000000000000000000, #149 ) ;
#91 = AXIS2_PLACEMENT_3D ( 'NONE', #176, #55, #114 ) ;
#92 = AXIS2_PLACEMENT_3D ( 'NONE', #162, #73, #238 ) ;
#93 = FACE_OUTER_BOUND ( 'NONE', #46, .T. ) ;
#94 = VERTEX_POINT ( 'NONE', #108 ) ;
#95 = CARTESIAN_POINT ( 'NONE',  ( 2.216554600964392452E-14, -7.740320731643380267E-16, 6.348464694068292502 ) ) ;
#96 = EDGE_CURVE ( 'NONE', #198, #198, #242, .T. ) ;
#97 = CC_DESIGN_APPROVAL ( #168, ( #2 ) ) ;
#98 = AXIS2_PLACEMENT_3D ( 'NONE', #71, #177, #221 ) ;
#99 = CC_DESIGN_PERSON_AND_ORGANIZATION_ASSIGNMENT ( #184, #132, ( #2 ) ) ;
#100 = PERSON_AND_ORGANIZATION_ROLE ( 'design_supplier' ) ;
#101 =( GEOMETRIC_REPRESENTATION_CONTEXT ( 3 ) GLOBAL_UNCERTAINTY_ASSIGNED_CONTEXT ( ( #45 ) ) GLOBAL_UNIT_ASSIGNED_CONTEXT ( ( #228, #58, #225 ) ) REPRESENTATION_CONTEXT ( 'NONE', 'WORKASPACE' ) );
#102 = AXIS2_PLACEMENT_3D ( 'NONE', #240, #202, #140 ) ;
#103 = SHAPE_DEFINITION_REPRESENTATION ( #229, #210 ) ;
#104 = EDGE_LOOP ( 'NONE', ( #11 ) ) ;
#105 = EDGE_LOOP ( 'NONE', ( #218 ) ) ;
#106 = ORIENTED_EDGE ( 'NONE', *, *, #150, .T. ) ;
#107 = PERSON ( 'UNSPECIFIED', 'UNSPECIFIED', 'UNSPECIFIED', ('UNSPECIFIED'), ('UNSPECIFIED'), ('UNSPECIFIED') ) ;
#108 = CARTESIAN_POINT ( 'NONE',  ( -5.193911520156518033E-30, -0.3250000000000000111, -1.487595383189837362E-15 ) ) ;
#109 = CARTESIAN_POINT ( 'NONE',  ( 5.935518276033325915E-15, -2.457524924300483455E-16, 1.699999999999999734 ) ) ;
#110 = FACE_OUTER_BOUND ( 'NONE', #105, .T. ) ;
#111 = CC_DESIGN_PERSON_AND_ORGANIZATION_ASSIGNMENT ( #117, #187, ( #200 ) ) ;
#112 = FACE_OUTER_BOUND ( 'NONE', #172, .T. ) ;
#113 = FACE_BOUND ( 'NONE', #104, .T. ) ;
#114 = DIRECTION ( 'NONE',  ( 0.0000000000000000000, -1.000000000000000000, 0.0000000000000000000 ) ) ;
#115 = EDGE_CURVE ( 'NONE', #94, #94, #171, .T. ) ;
#116 = APPROVAL_STATUS ( 'not_yet_approved' ) ;
#117 = PERSON_AND_ORGANIZATION ( #107, #30 ) ;
#118 = PERSON_AND_ORGANIZATION ( #107, #30 ) ;
#119 = APPROVAL_STATUS ( 'not_yet_approved' ) ;
#120 = CLOSED_SHELL ( 'NONE', ( #163, #136, #121 ) ) ;
#121 = ADVANCED_FACE ( 'NONE', ( #164 ), #50, .F. ) ;
#122 = APPROVAL_ROLE ( '' ) ;
#123 = ORIENTED_EDGE ( 'NONE', *, *, #153, .F. ) ;
#124 = DIRECTION ( 'NONE',  ( 4.275831445896958607E-31, 1.000000000000000000, 1.224646799147353207E-16 ) ) ;
#125 = DIRECTION ( 'NONE',  ( 3.491481338843133355E-15, -1.219242935835426903E-16, 1.000000000000000000 ) ) ;
#126 = DIRECTION ( 'NONE',  ( -3.491481338843133355E-15, 1.224646799147353207E-16, -1.000000000000000000 ) ) ;
#127 = DIRECTION ( 'NONE',  ( -4.275831445896958607E-31, -1.000000000000000000, -1.224646799147353207E-16 ) ) ;
#128 = ADVANCED_FACE ( 'NONE', ( #1, #146 ), #152, .T. ) ;
#129 = FACE_OUTER_BOUND ( 'NONE', #44, .T. ) ;
#130 = DIRECTION ( 'NONE',  ( -3.491481338843133355E-15, 1.219242935835426903E-16, -1.000000000000000000 ) ) ;
#131 = DIRECTION ( 'NONE',  ( -4.275831445896958607E-31, -1.000000000000000000, -1.224646799147353207E-16 ) ) ;
#132 = PERSON_AND_ORGANIZATION_ROLE ( 'creator' ) ;
#133 = PERSON_AND_ORGANIZATION ( #107, #30 ) ;
#134 = CALENDAR_DATE ( 2021, 16, 11 ) ;
#135 = CARTESIAN_POINT ( 'NONE',  ( 1.326762908760390170E-13, 1.199999999999987521, 37.99999999999999289 ) ) ;
#136 = ADVANCED_FACE ( 'NONE', ( #239, #35 ), #18, .T. ) ;
#137 = ORIENTED_EDGE ( 'NONE', *, *, #96, .T. ) ;
#138 = ORIENTED_EDGE ( 'NONE', *, *, #150, .F. ) ;
#139 = PLANE ( 'NONE',  #179 ) ;
#140 = DIRECTION ( 'NONE',  ( -4.256963957985708013E-31, -1.000000000000000000, -1.219242935835426903E-16 ) ) ;
#141 = CARTESIAN_POINT ( 'NONE',  ( -5.055560191521982387E-30, 1.765427178896604927E-31, -1.447969987775185983E-15 ) ) ;
#142 = AXIS2_PLACEMENT_3D ( 'NONE', #160, #199, #207 ) ;
#143 = DIRECTION ( 'NONE',  ( 3.491481338843133355E-15, -1.219242935835426903E-16, 1.000000000000000000 ) ) ;
#144 = DIRECTION ( 'NONE',  ( 3.491481338843133355E-15, -1.224646799147353207E-16, 1.000000000000000000 ) ) ;
#145 = EDGE_CURVE ( 'NONE', #175, #175, #26, .T. ) ;
#146 = FACE_OUTER_BOUND ( 'NONE', #13, .T. ) ;
#147 = DATE_AND_TIME ( #77, #25 ) ;
#148 = DIRECTION ( 'NONE',  ( 0.0000000000000000000, 0.0000000000000000000, 1.000000000000000000 ) ) ;
#149 = COORDINATED_UNIVERSAL_TIME_OFFSET ( 1, 0, .AHEAD. ) ;
#150 = EDGE_CURVE ( 'NONE', #201, #201, #174, .T. ) ;
#151 = COORDINATED_UNIVERSAL_TIME_OFFSET ( 1, 0, .AHEAD. ) ;
#152 = CONICAL_SURFACE ( 'NONE', #173, 2.499999999999991118, 0.2617993877991428575 ) ;
#153 = EDGE_CURVE ( 'NONE', #63, #63, #66, .T. ) ;
#154 = AXIS2_PLACEMENT_3D ( 'NONE', #49, #143, #181 ) ;
#155 = ORIENTED_EDGE ( 'NONE', *, *, #193, .F. ) ;
#156 = CC_DESIGN_PERSON_AND_ORGANIZATION_ASSIGNMENT ( #61, #212, ( #85 ) ) ;
#157 = LOCAL_TIME ( 16, 45, 1.000000000000000000, #3 ) ;
#158 = CARTESIAN_POINT ( 'NONE',  ( 1.316288464743860707E-13, -4.616918432785519503E-15, 37.69999999999998153 ) ) ;
#159 = PLANE ( 'NONE',  #54 ) ;
#160 = CARTESIAN_POINT ( 'NONE',  ( 1.326762908760390170E-13, -4.653657836759941152E-15, 37.99999999999999289 ) ) ;
#161 = TOROIDAL_SURFACE ( 'NONE', #92, 2.324999999999999734, 2.000000000000000000 ) ;
#162 = CARTESIAN_POINT ( 'NONE',  ( 5.935518276033323549E-15, 0.0000000000000000000, 1.699999999999999067 ) ) ;
#163 = ADVANCED_FACE ( 'NONE', ( #112 ), #159, .T. ) ;
#164 = FACE_OUTER_BOUND ( 'NONE', #81, .T. ) ;
#165 = PERSON_AND_ORGANIZATION ( #107, #30 ) ;
#166 = CIRCLE ( 'NONE', #154, 0.3250000000000000111 ) ;
#167 = APPROVAL_STATUS ( 'not_yet_approved' ) ;
#168 = APPROVAL ( #167, 'UNSPECIFIED' ) ;
#169 = CALENDAR_DATE ( 2021, 16, 11 ) ;
#170 = PRODUCT ( '966123', '966123', '', ( #6 ) ) ;
#171 = CIRCLE ( 'NONE', #62, 0.3250000000000000111 ) ;
#172 = EDGE_LOOP ( 'NONE', ( #215 ) ) ;
#173 = AXIS2_PLACEMENT_3D ( 'NONE', #74, #223, #224 ) ;
#174 = CIRCLE ( 'NONE', #91, 0.3931483474218600560 ) ;
#175 = VERTEX_POINT ( 'NONE', #15 ) ;
#176 = CARTESIAN_POINT ( 'NONE',  ( 7.742842008258579929E-15, -2.703839575722047788E-16, 2.217638090205027890 ) ) ;
#177 = DIRECTION ( 'NONE',  ( -3.491481338843133355E-15, 1.224646799147353207E-16, -1.000000000000000000 ) ) ;
#178 = DIRECTION ( 'NONE',  ( 0.0000000000000000000, 1.000000000000000000, 0.0000000000000000000 ) ) ;
#179 = AXIS2_PLACEMENT_3D ( 'NONE', #180, #126, #124 ) ;
#180 = CARTESIAN_POINT ( 'NONE',  ( 1.326762908760390170E-13, 8.998558695971017012E-33, 37.99999999999999289 ) ) ;
#181 = DIRECTION ( 'NONE',  ( 0.0000000000000000000, -1.000000000000000000, 0.0000000000000000000 ) ) ;
#182 = DIRECTION ( 'NONE',  ( 1.000000000000000000, 0.0000000000000000000, 0.0000000000000000000 ) ) ;
#183 = APPROVAL_ROLE ( '' ) ;
#184 = PERSON_AND_ORGANIZATION ( #107, #30 ) ;
#185 = APPROVAL_PERSON_ORGANIZATION ( #165, #168, #206 ) ;
#186 = CIRCLE ( 'NONE', #10, 1.499999999999992006 ) ;
#187 = PERSON_AND_ORGANIZATION_ROLE ( 'classification_officer' ) ;
#188 = CARTESIAN_POINT ( 'NONE',  ( 0.0000000000000000000, 0.0000000000000000000, 0.0000000000000000000 ) ) ;
#189 = DATE_AND_TIME ( #169, #21 ) ;
#190 = AXIS2_PLACEMENT_3D ( 'NONE', #188, #148, #182 ) ;
#191 = COORDINATED_UNIVERSAL_TIME_OFFSET ( 1, 0, .AHEAD. ) ;
#192 = DESIGN_CONTEXT ( 'detailed design', #64, 'design' ) ;
#193 = EDGE_CURVE ( 'NONE', #23, #23, #186, .T. ) ;
#194 = ORIENTED_EDGE ( 'NONE', *, *, #145, .T. ) ;
#195 = APPROVAL_DATE_TIME ( #189, #7 ) ;
#196 = MANIFOLD_SOLID_BREP ( 'Corps-Déplacer/Copier1[1]', #27 ) ;
#197 = CC_DESIGN_PERSON_AND_ORGANIZATION_ASSIGNMENT ( #75, #227, ( #170 ) ) ;
#198 = VERTEX_POINT ( 'NONE', #17 ) ;
#199 = DIRECTION ( 'NONE',  ( -3.491481338843133355E-15, 1.224646799147353207E-16, -1.000000000000000000 ) ) ;
#200 = SECURITY_CLASSIFICATION ( '', '', #38 ) ;
#201 = VERTEX_POINT ( 'NONE', #4 ) ;
#202 = DIRECTION ( 'NONE',  ( 3.491481338843133355E-15, -1.219242935835426903E-16, 1.000000000000000000 ) ) ;
#203 = FACE_OUTER_BOUND ( 'NONE', #28, .T. ) ;
#204 = DIRECTION ( 'NONE',  ( 3.491481338843133355E-15, -1.224646799147353207E-16, 1.000000000000000000 ) ) ;
#205 = CC_DESIGN_APPROVAL ( #7, ( #200 ) ) ;
#206 = APPROVAL_ROLE ( '' ) ;
#207 = DIRECTION ( 'NONE',  ( 0.0000000000000000000, 1.000000000000000000, 0.0000000000000000000 ) ) ;
#208 = PERSON_AND_ORGANIZATION ( #107, #30 ) ;
#209 = CALENDAR_DATE ( 2021, 16, 11 ) ;
#210 = ADVANCED_BREP_SHAPE_REPRESENTATION ( '966123', ( #196, #41, #190 ), #101 ) ;
#211 = AXIS2_PLACEMENT_3D ( 'NONE', #243, #204, #127 ) ;
#212 = PERSON_AND_ORGANIZATION_ROLE ( 'creator' ) ;
#213 = APPLICATION_PROTOCOL_DEFINITION ( 'international standard', 'config_control_design', 1994, #64 ) ;
#214 = ADVANCED_FACE ( 'NONE', ( #110, #14 ), #87, .T. ) ;
#215 = ORIENTED_EDGE ( 'NONE', *, *, #33, .T. ) ;
#216 = ORIENTED_EDGE ( 'NONE', *, *, #115, .F. ) ;
#217 = EDGE_LOOP ( 'NONE', ( #235 ) ) ;
#218 = ORIENTED_EDGE ( 'NONE', *, *, #193, .T. ) ;
#219 = CARTESIAN_POINT ( 'NONE',  ( 5.935518276033323549E-15, -2.072712990920224551E-16, 1.699999999999999067 ) ) ;
#220 = DIRECTION ( 'NONE',  ( 3.491481338843133355E-15, -1.224646799147353207E-16, 1.000000000000000000 ) ) ;
#221 = DIRECTION ( 'NONE',  ( 4.275831445896959482E-31, 1.000000000000000000, 1.224646799147353207E-16 ) ) ;
#222 = CARTESIAN_POINT ( 'NONE',  ( 5.935518276033323549E-15, -0.3250000000000001776, 1.699999999999999067 ) ) ;
#223 = DIRECTION ( 'NONE',  ( 3.491481338843133355E-15, -1.219242935835426903E-16, 1.000000000000000000 ) ) ;
#224 = DIRECTION ( 'NONE',  ( 0.0000000000000000000, -1.000000000000000000, 0.0000000000000000000 ) ) ;
#225 =( NAMED_UNIT ( * ) SI_UNIT ( $, .STERADIAN. ) SOLID_ANGLE_UNIT ( ) );
#226 = ADVANCED_FACE ( 'NONE', ( #129, #203 ), #161, .F. ) ;
#227 = PERSON_AND_ORGANIZATION_ROLE ( 'design_owner' ) ;
#228 =( LENGTH_UNIT ( ) NAMED_UNIT ( * ) SI_UNIT ( .MILLI., .METRE. ) );
#229 = PRODUCT_DEFINITION_SHAPE ( 'NONE', 'NONE',  #2 ) ;
#230 = PRODUCT_RELATED_PRODUCT_CATEGORY ( 'detail', '', ( #170 ) ) ;
#231 = APPROVAL_PERSON_ORGANIZATION ( #118, #7, #122 ) ;
#232 = DATE_AND_TIME ( #78, #47 ) ;
#233 = APPLICATION_CONTEXT ( 'configuration controlled 3d designs of mechanical parts and assemblies' ) ;
#234 = ADVANCED_FACE ( 'NONE', ( #93 ), #139, .F. ) ;
#235 = ORIENTED_EDGE ( 'NONE', *, *, #33, .F. ) ;
#236 = EDGE_LOOP ( 'NONE', ( #155 ) ) ;
#237 = ORIENTED_EDGE ( 'NONE', *, *, #115, .T. ) ;
#238 = DIRECTION ( 'NONE',  ( -4.318363482617522516E-31, -1.000000000000000000, -1.219242935835426903E-16 ) ) ;
#239 = FACE_OUTER_BOUND ( 'NONE', #12, .T. ) ;
#240 = CARTESIAN_POINT ( 'NONE',  ( 0.0000000000000000000, 0.0000000000000000000, 0.0000000000000000000 ) ) ;
#241 = DIRECTION ( 'NONE',  ( 3.491481338843133355E-15, -1.219242935835426903E-16, 1.000000000000000000 ) ) ;
#242 = CIRCLE ( 'NONE', #80, 1.499999999999989786 ) ;
#243 = CARTESIAN_POINT ( 'NONE',  ( -2.137917073001454058E-30, 7.498803648657679327E-32, -6.123237862442165323E-16 ) ) ;
ENDSEC;
END-ISO-10303-21;
