ISO-10303-21;
HEADER;
FILE_DESCRIPTION (( 'STEP AP203' ),
    '1' );
FILE_NAME ('966122.step',
    '2021-11-16T15:45:00',
    ( '' ),
    ( '' ),
    'SwSTEP 2.0',
    'SolidWorks 2019',
    '' );
FILE_SCHEMA (( 'CONFIG_CONTROL_DESIGN' ));
ENDSEC;

DATA;
#1 = SHAPE_DEFINITION_REPRESENTATION ( #46, #70 ) ;
#2 = ORIENTED_EDGE ( 'NONE', *, *, #219, .F. ) ;
#3 = CC_DESIGN_APPROVAL ( #117, ( #72 ) ) ;
#4 = ORIENTED_EDGE ( 'NONE', *, *, #204, .F. ) ;
#5 = CYLINDRICAL_SURFACE ( 'NONE', #125, 1.499999999999989786 ) ;
#6 = DIRECTION ( 'NONE',  ( 0.0000000000000000000, -1.000000000000000000, 0.0000000000000000000 ) ) ;
#7 = COORDINATED_UNIVERSAL_TIME_OFFSET ( 1, 0, .AHEAD. ) ;
#8 = CARTESIAN_POINT ( 'NONE',  ( 5.237222008264700033E-15, -2.168404344971014538E-16, 1.500000000000000000 ) ) ;
#9 = ADVANCED_FACE ( 'NONE', ( #18 ), #115, .F. ) ;
#10 = PERSON_AND_ORGANIZATION ( #189, #210 ) ;
#11 = CALENDAR_DATE ( 2021, 16, 11 ) ;
#12 = FACE_OUTER_BOUND ( 'NONE', #19, .T. ) ;
#13 = CC_DESIGN_DATE_AND_TIME_ASSIGNMENT ( #230, #31, ( #72 ) ) ;
#14 = CARTESIAN_POINT ( 'NONE',  ( 0.0000000000000000000, 0.0000000000000000000, 0.0000000000000000000 ) ) ;
#15 = AXIS2_PLACEMENT_3D ( 'NONE', #14, #108, #241 ) ;
#16 = SECURITY_CLASSIFICATION_LEVEL ( 'unclassified' ) ;
#17 = COORDINATED_UNIVERSAL_TIME_OFFSET ( 1, 0, .AHEAD. ) ;
#18 = FACE_OUTER_BOUND ( 'NONE', #79, .T. ) ;
#19 = EDGE_LOOP ( 'NONE', ( #123 ) ) ;
#20 = DIRECTION ( 'NONE',  ( 3.491481338843133355E-15, -1.219242935835426903E-16, 1.000000000000000000 ) ) ;
#21 = DIRECTION ( 'NONE',  ( 0.0000000000000000000, 1.000000000000000000, 0.0000000000000000000 ) ) ;
#22 = APPROVAL_STATUS ( 'not_yet_approved' ) ;
#23 = CC_DESIGN_PERSON_AND_ORGANIZATION_ASSIGNMENT ( #216, #238, ( #191 ) ) ;
#24 = CARTESIAN_POINT ( 'NONE',  ( 5.237222008264700033E-15, -2.168404344971014538E-16, 1.500000000000000000 ) ) ;
#25 = APPROVAL_ROLE ( '' ) ;
#26 = DIRECTION ( 'NONE',  ( 3.491481338843133355E-15, -1.219242935835426903E-16, 1.000000000000000000 ) ) ;
#27 = LOCAL_TIME ( 16, 45, 0.0000000000000000000, #7 ) ;
#28 = CARTESIAN_POINT ( 'NONE',  ( 1.326762908760390170E-13, 1.199999999999987521, 37.99999999999999289 ) ) ;
#29 = DIRECTION ( 'NONE',  ( 3.491481338843133355E-15, -1.224646799147353207E-16, 1.000000000000000000 ) ) ;
#30 = APPROVAL ( #203, 'UNSPECIFIED' ) ;
#31 = DATE_TIME_ROLE ( 'creation_date' ) ;
#32 = CARTESIAN_POINT ( 'NONE',  ( 1.316288464743860707E-13, 1.499999999999987566, 37.69999999999998153 ) ) ;
#33 = CC_DESIGN_PERSON_AND_ORGANIZATION_ASSIGNMENT ( #83, #146, ( #233 ) ) ;
#34 = PERSON_AND_ORGANIZATION ( #189, #210 ) ;
#35 = DATE_AND_TIME ( #182, #201 ) ;
#36 = EDGE_LOOP ( 'NONE', ( #205 ) ) ;
#37 = EDGE_LOOP ( 'NONE', ( #81 ) ) ;
#38 = FACE_OUTER_BOUND ( 'NONE', #97, .T. ) ;
#39 = AXIS2_PLACEMENT_3D ( 'NONE', #157, #86, #162 ) ;
#40 = FACE_OUTER_BOUND ( 'NONE', #37, .T. ) ;
#41 = AXIS2_PLACEMENT_3D ( 'NONE', #24, #65, #143 ) ;
#42 = APPLICATION_CONTEXT ( 'configuration controlled 3d designs of mechanical parts and assemblies' ) ;
#43 = DIRECTION ( 'NONE',  ( 0.0000000000000000000, -1.000000000000000000, 0.0000000000000000000 ) ) ;
#44 = UNCERTAINTY_MEASURE_WITH_UNIT (LENGTH_MEASURE( 1.000000000000000082E-05 ), #236, 'distance_accuracy_value', 'NONE');
#45 = CARTESIAN_POINT ( 'NONE',  ( 5.237222008264697666E-15, 0.0000000000000000000, 1.499999999999999334 ) ) ;
#46 = PRODUCT_DEFINITION_SHAPE ( 'NONE', 'NONE',  #72 ) ;
#47 = CARTESIAN_POINT ( 'NONE',  ( 7.044545740489955625E-15, -0.3681483474218604779, 2.017638090205028156 ) ) ;
#48 = AXIS2_PLACEMENT_3D ( 'NONE', #82, #105, #158 ) ;
#49 = CIRCLE ( 'NONE', #63, 0.3000000000000000999 ) ;
#50 = VERTEX_POINT ( 'NONE', #85 ) ;
#51 = APPROVAL_ROLE ( '' ) ;
#52 = ADVANCED_FACE ( 'NONE', ( #177, #181 ), #57, .T. ) ;
#53 = CC_DESIGN_PERSON_AND_ORGANIZATION_ASSIGNMENT ( #214, #196, ( #191 ) ) ;
#54 = EDGE_LOOP ( 'NONE', ( #222 ) ) ;
#55 = DATE_TIME_ROLE ( 'classification_date' ) ;
#56 = CONICAL_SURFACE ( 'NONE', #98, 2.499999999999991118, 0.2617993877991429130 ) ;
#57 = CONICAL_SURFACE ( 'NONE', #232, 1.199999999999992184, 0.7853981633974338461 ) ;
#58 = ORIENTED_EDGE ( 'NONE', *, *, #73, .T. ) ;
#59 = ORIENTED_EDGE ( 'NONE', *, *, #242, .T. ) ;
#60 = CARTESIAN_POINT ( 'NONE',  ( 0.0000000000000000000, 0.0000000000000000000, 0.0000000000000000000 ) ) ;
#61 = APPROVAL_DATE_TIME ( #161, #117 ) ;
#62 = CARTESIAN_POINT ( 'NONE',  ( 7.044545740489955625E-15, -2.459990988554962605E-16, 2.017638090205028156 ) ) ;
#63 = AXIS2_PLACEMENT_3D ( 'NONE', #190, #20, #43 ) ;
#64 = APPROVAL_ROLE ( '' ) ;
#65 = DIRECTION ( 'NONE',  ( 3.491481338843133355E-15, -1.224646799147353207E-16, 1.000000000000000000 ) ) ;
#66 = APPLICATION_PROTOCOL_DEFINITION ( 'international standard', 'config_control_design', 1994, #42 ) ;
#67 = CARTESIAN_POINT ( 'NONE',  ( 2.179300938563132973E-14, -7.610229059058977471E-16, 6.241765964257514732 ) ) ;
#68 = APPLICATION_CONTEXT ( 'configuration controlled 3d designs of mechanical parts and assemblies' ) ;
#69 = VERTEX_POINT ( 'NONE', #47 ) ;
#70 = ADVANCED_BREP_SHAPE_REPRESENTATION ( '966122', ( #122, #118, #15 ), #209 ) ;
#71 = CARTESIAN_POINT ( 'NONE',  ( 2.179300938563132973E-14, -1.499999999999990674, 6.241765964257514732 ) ) ;
#72 = PRODUCT_DEFINITION ( 'UNKNOWN', '', #191, #104 ) ;
#73 = EDGE_CURVE ( 'NONE', #69, #69, #167, .T. ) ;
#74 = CALENDAR_DATE ( 2021, 16, 11 ) ;
#75 = LOCAL_TIME ( 16, 45, 0.0000000000000000000, #142 ) ;
#76 = ADVANCED_FACE ( 'NONE', ( #107 ), #234, .T. ) ;
#77 = CIRCLE ( 'NONE', #112, 0.2999999999999999334 ) ;
#78 = ADVANCED_FACE ( 'NONE', ( #12, #40 ), #197, .T. ) ;
#79 = EDGE_LOOP ( 'NONE', ( #4 ) ) ;
#80 = CLOSED_SHELL ( 'NONE', ( #206, #52, #183, #227, #134, #116 ) ) ;
#81 = ORIENTED_EDGE ( 'NONE', *, *, #171, .F. ) ;
#82 = CARTESIAN_POINT ( 'NONE',  ( 1.326762908760390170E-13, -4.653657836759941152E-15, 37.99999999999999289 ) ) ;
#83 = PERSON_AND_ORGANIZATION ( #189, #210 ) ;
#84 = FACE_OUTER_BOUND ( 'NONE', #153, .T. ) ;
#85 = CARTESIAN_POINT ( 'NONE',  ( -5.172626700366588556E-30, -0.2999999999999999334, -1.481499168510660257E-15 ) ) ;
#86 = DIRECTION ( 'NONE',  ( 3.491481338843133355E-15, -1.219242935835426903E-16, 1.000000000000000000 ) ) ;
#87 = CALENDAR_DATE ( 2021, 16, 11 ) ;
#88 = CARTESIAN_POINT ( 'NONE',  ( 3.482339513587286384E-14, -1.216050564236635479E-15, 9.973816771826493621 ) ) ;
#89 = PERSON_AND_ORGANIZATION ( #189, #210 ) ;
#90 = DIRECTION ( 'NONE',  ( -3.491481338843133355E-15, 1.219242935835426903E-16, -1.000000000000000000 ) ) ;
#91 = VERTEX_POINT ( 'NONE', #28 ) ;
#92 = CIRCLE ( 'NONE', #154, 1.499999999999989786 ) ;
#93 = PRODUCT_RELATED_PRODUCT_CATEGORY ( 'detail', '', ( #233 ) ) ;
#94 = TOROIDAL_SURFACE ( 'NONE', #226, 2.299999999999999822, 2.000000000000000000 ) ;
#95 = SECURITY_CLASSIFICATION ( '', '', #16 ) ;
#96 = AXIS2_PLACEMENT_3D ( 'NONE', #213, #29, #131 ) ;
#97 = EDGE_LOOP ( 'NONE', ( #59 ) ) ;
#98 = AXIS2_PLACEMENT_3D ( 'NONE', #88, #163, #237 ) ;
#99 = PLANE ( 'NONE',  #41 ) ;
#100 = DIRECTION ( 'NONE',  ( 3.491481338843133355E-15, -1.219242935835426903E-16, 1.000000000000000000 ) ) ;
#101 = PLANE ( 'NONE',  #185 ) ;
#102 = COORDINATED_UNIVERSAL_TIME_OFFSET ( 1, 0, .AHEAD. ) ;
#103 = APPROVAL_PERSON_ORGANIZATION ( #193, #117, #25 ) ;
#104 = DESIGN_CONTEXT ( 'detailed design', #42, 'design' ) ;
#105 = DIRECTION ( 'NONE',  ( -3.491481338843133355E-15, 1.224646799147353207E-16, -1.000000000000000000 ) ) ;
#106 = VERTEX_POINT ( 'NONE', #71 ) ;
#107 = FACE_OUTER_BOUND ( 'NONE', #173, .T. ) ;
#108 = DIRECTION ( 'NONE',  ( 0.0000000000000000000, 0.0000000000000000000, 1.000000000000000000 ) ) ;
#109 = CC_DESIGN_PERSON_AND_ORGANIZATION_ASSIGNMENT ( #89, #198, ( #72 ) ) ;
#110 = VERTEX_POINT ( 'NONE', #212 ) ;
#111 = LOCAL_TIME ( 16, 45, 0.0000000000000000000, #17 ) ;
#112 = AXIS2_PLACEMENT_3D ( 'NONE', #228, #26, #207 ) ;
#113 = DATE_AND_TIME ( #74, #111 ) ;
#114 = COORDINATED_UNIVERSAL_TIME_OFFSET ( 1, 0, .AHEAD. ) ;
#115 = PLANE ( 'NONE',  #96 ) ;
#116 = ADVANCED_FACE ( 'NONE', ( #84 ), #99, .F. ) ;
#117 = APPROVAL ( #159, 'UNSPECIFIED' ) ;
#118 = MANIFOLD_SOLID_BREP ( 'Corps-Déplacer/Copier1[2]', #149 ) ;
#119 = ORIENTED_EDGE ( 'NONE', *, *, #73, .F. ) ;
#120 = AXIS2_PLACEMENT_3D ( 'NONE', #229, #139, #208 ) ;
#121 = EDGE_LOOP ( 'NONE', ( #137 ) ) ;
#122 = MANIFOLD_SOLID_BREP ( 'Corps-Déplacer/Copier1[1]', #80 ) ;
#123 = ORIENTED_EDGE ( 'NONE', *, *, #204, .T. ) ;
#124 = DIRECTION ( 'NONE',  ( 4.275831445896958607E-31, 1.000000000000000000, 1.224646799147353207E-16 ) ) ;
#125 = AXIS2_PLACEMENT_3D ( 'NONE', #60, #128, #194 ) ;
#126 = FACE_BOUND ( 'NONE', #155, .T. ) ;
#127 = CALENDAR_DATE ( 2021, 16, 11 ) ;
#128 = DIRECTION ( 'NONE',  ( -3.491481338843133355E-15, 1.224646799147353207E-16, -1.000000000000000000 ) ) ;
#129 =( NAMED_UNIT ( * ) SI_UNIT ( $, .STERADIAN. ) SOLID_ANGLE_UNIT ( ) );
#130 = CARTESIAN_POINT ( 'NONE',  ( 1.326762908760390170E-13, 8.998558695971017012E-33, 37.99999999999999289 ) ) ;
#131 = DIRECTION ( 'NONE',  ( -4.275831445896958607E-31, -1.000000000000000000, -1.224646799147353207E-16 ) ) ;
#132 = APPLICATION_PROTOCOL_DEFINITION ( 'international standard', 'config_control_design', 1994, #68 ) ;
#133 = ORIENTED_EDGE ( 'NONE', *, *, #219, .T. ) ;
#134 = ADVANCED_FACE ( 'NONE', ( #160, #141 ), #94, .F. ) ;
#135 = ORIENTED_EDGE ( 'NONE', *, *, #220, .F. ) ;
#136 = EDGE_LOOP ( 'NONE', ( #2 ) ) ;
#137 = ORIENTED_EDGE ( 'NONE', *, *, #235, .F. ) ;
#138 = DIRECTION ( 'NONE',  ( -4.318720456597940409E-31, -1.000000000000000000, -1.219242935835426903E-16 ) ) ;
#139 = DIRECTION ( 'NONE',  ( 3.491481338843133355E-15, -1.219242935835426903E-16, 1.000000000000000000 ) ) ;
#140 = VERTEX_POINT ( 'NONE', #180 ) ;
#141 = FACE_OUTER_BOUND ( 'NONE', #187, .T. ) ;
#142 = COORDINATED_UNIVERSAL_TIME_OFFSET ( 1, 0, .AHEAD. ) ;
#143 = DIRECTION ( 'NONE',  ( -4.275831445896958607E-31, -1.000000000000000000, -1.224646799147353207E-16 ) ) ;
#144 = DATE_AND_TIME ( #87, #75 ) ;
#145 = DIRECTION ( 'NONE',  ( -3.491481338843133355E-15, 1.224646799147353207E-16, -1.000000000000000000 ) ) ;
#146 = PERSON_AND_ORGANIZATION_ROLE ( 'design_owner' ) ;
#147 = CIRCLE ( 'NONE', #120, 0.3000000000000000999 ) ;
#148 = DIRECTION ( 'NONE',  ( 0.0000000000000000000, 1.000000000000000000, 0.0000000000000000000 ) ) ;
#149 = CLOSED_SHELL ( 'NONE', ( #76, #78, #9 ) ) ;
#150 = CC_DESIGN_SECURITY_CLASSIFICATION ( #95, ( #191 ) ) ;
#151 = CC_DESIGN_DATE_AND_TIME_ASSIGNMENT ( #113, #55, ( #95 ) ) ;
#152 = AXIS2_PLACEMENT_3D ( 'NONE', #62, #100, #6 ) ;
#153 = EDGE_LOOP ( 'NONE', ( #135 ) ) ;
#154 = AXIS2_PLACEMENT_3D ( 'NONE', #67, #90, #165 ) ;
#155 = EDGE_LOOP ( 'NONE', ( #58 ) ) ;
#156 = AXIS2_PLACEMENT_3D ( 'NONE', #8, #215, #211 ) ;
#157 = CARTESIAN_POINT ( 'NONE',  ( 0.0000000000000000000, 0.0000000000000000000, 0.0000000000000000000 ) ) ;
#158 = DIRECTION ( 'NONE',  ( 0.0000000000000000000, 1.000000000000000000, 0.0000000000000000000 ) ) ;
#159 = APPROVAL_STATUS ( 'not_yet_approved' ) ;
#160 = FACE_OUTER_BOUND ( 'NONE', #54, .T. ) ;
#161 = DATE_AND_TIME ( #11, #174 ) ;
#162 = DIRECTION ( 'NONE',  ( -4.256963957985708889E-31, -1.000000000000000000, -1.219242935835426656E-16 ) ) ;
#163 = DIRECTION ( 'NONE',  ( 3.491481338843133355E-15, -1.219242935835426903E-16, 1.000000000000000000 ) ) ;
#164 = APPROVAL_DATE_TIME ( #144, #199 ) ;
#165 = DIRECTION ( 'NONE',  ( 0.0000000000000000000, -1.000000000000000000, 0.0000000000000000000 ) ) ;
#166 = VERTEX_POINT ( 'NONE', #32 ) ;
#167 = CIRCLE ( 'NONE', #152, 0.3681483474218602003 ) ;
#168 = CIRCLE ( 'NONE', #186, 1.499999999999992006 ) ;
#169 = APPROVAL_PERSON_ORGANIZATION ( #10, #199, #64 ) ;
#170 = PERSON_AND_ORGANIZATION_ROLE ( 'classification_officer' ) ;
#171 = EDGE_CURVE ( 'NONE', #110, #110, #49, .T. ) ;
#172 = ORIENTED_EDGE ( 'NONE', *, *, #171, .T. ) ;
#173 = EDGE_LOOP ( 'NONE', ( #172 ) ) ;
#174 = LOCAL_TIME ( 16, 45, 0.0000000000000000000, #102 ) ;
#175 = FACE_OUTER_BOUND ( 'NONE', #121, .T. ) ;
#176 = FACE_OUTER_BOUND ( 'NONE', #136, .T. ) ;
#177 = FACE_OUTER_BOUND ( 'NONE', #224, .T. ) ;
#178 = MECHANICAL_CONTEXT ( 'NONE', #68, 'mechanical' ) ;
#179 = FACE_OUTER_BOUND ( 'NONE', #36, .T. ) ;
#180 = CARTESIAN_POINT ( 'NONE',  ( 5.237222008264697666E-15, -0.3000000000000002665, 1.499999999999999334 ) ) ;
#181 = FACE_BOUND ( 'NONE', #202, .T. ) ;
#182 = CALENDAR_DATE ( 2021, 16, 11 ) ;
#183 = ADVANCED_FACE ( 'NONE', ( #176 ), #101, .F. ) ;
#184 = APPROVAL_PERSON_ORGANIZATION ( #243, #30, #51 ) ;
#185 = AXIS2_PLACEMENT_3D ( 'NONE', #130, #195, #124 ) ;
#186 = AXIS2_PLACEMENT_3D ( 'NONE', #239, #217, #148 ) ;
#187 = EDGE_LOOP ( 'NONE', ( #119 ) ) ;
#188 = CC_DESIGN_PERSON_AND_ORGANIZATION_ASSIGNMENT ( #34, #170, ( #95 ) ) ;
#189 = PERSON ( 'UNSPECIFIED', 'UNSPECIFIED', 'UNSPECIFIED', ('UNSPECIFIED'), ('UNSPECIFIED'), ('UNSPECIFIED') ) ;
#190 = CARTESIAN_POINT ( 'NONE',  ( 5.237222008264697666E-15, -1.828864403753139615E-16, 1.499999999999999334 ) ) ;
#191 = PRODUCT_DEFINITION_FORMATION_WITH_SPECIFIED_SOURCE ( 'ANY', '', #233, .NOT_KNOWN. ) ;
#192 = DIRECTION ( 'NONE',  ( 3.491481338843133355E-15, -1.219242935835426903E-16, 1.000000000000000000 ) ) ;
#193 = PERSON_AND_ORGANIZATION ( #189, #210 ) ;
#194 = DIRECTION ( 'NONE',  ( 4.275831445896959482E-31, 1.000000000000000000, 1.224646799147353207E-16 ) ) ;
#195 = DIRECTION ( 'NONE',  ( -3.491481338843133355E-15, 1.224646799147353207E-16, -1.000000000000000000 ) ) ;
#196 = PERSON_AND_ORGANIZATION_ROLE ( 'creator' ) ;
#197 = CYLINDRICAL_SURFACE ( 'NONE', #39, 0.3000000000000000444 ) ;
#198 = PERSON_AND_ORGANIZATION_ROLE ( 'creator' ) ;
#199 = APPROVAL ( #22, 'UNSPECIFIED' ) ;
#200 = CIRCLE ( 'NONE', #48, 1.199999999999992184 ) ;
#201 = LOCAL_TIME ( 16, 45, 0.0000000000000000000, #114 ) ;
#202 = EDGE_LOOP ( 'NONE', ( #133 ) ) ;
#203 = APPROVAL_STATUS ( 'not_yet_approved' ) ;
#204 = EDGE_CURVE ( 'NONE', #50, #50, #77, .T. ) ;
#205 = ORIENTED_EDGE ( 'NONE', *, *, #235, .T. ) ;
#206 = ADVANCED_FACE ( 'NONE', ( #38, #175 ), #5, .T. ) ;
#207 = DIRECTION ( 'NONE',  ( -4.256963957985718523E-31, -1.000000000000000000, -1.219242935835426903E-16 ) ) ;
#208 = DIRECTION ( 'NONE',  ( 0.0000000000000000000, -1.000000000000000000, 0.0000000000000000000 ) ) ;
#209 =( GEOMETRIC_REPRESENTATION_CONTEXT ( 3 ) GLOBAL_UNCERTAINTY_ASSIGNED_CONTEXT ( ( #44 ) ) GLOBAL_UNIT_ASSIGNED_CONTEXT ( ( #236, #218, #129 ) ) REPRESENTATION_CONTEXT ( 'NONE', 'WORKASPACE' ) );
#210 = ORGANIZATION ( 'UNSPECIFIED', 'UNSPECIFIED', '' ) ;
#211 = DIRECTION ( 'NONE',  ( -4.275831445896958607E-31, -1.000000000000000000, -1.224646799147353207E-16 ) ) ;
#212 = CARTESIAN_POINT ( 'NONE',  ( 5.237222008264697666E-15, -0.3000000000000002665, 1.499999999999999334 ) ) ;
#213 = CARTESIAN_POINT ( 'NONE',  ( -2.137917073001454058E-30, 7.498803648657679327E-32, -6.123237862442165323E-16 ) ) ;
#214 = PERSON_AND_ORGANIZATION ( #189, #210 ) ;
#215 = DIRECTION ( 'NONE',  ( 3.491481338843133355E-15, -1.224646799147353207E-16, 1.000000000000000000 ) ) ;
#216 = PERSON_AND_ORGANIZATION ( #189, #210 ) ;
#217 = DIRECTION ( 'NONE',  ( -3.491481338843133355E-15, 1.224646799147353207E-16, -1.000000000000000000 ) ) ;
#218 =( NAMED_UNIT ( * ) PLANE_ANGLE_UNIT ( ) SI_UNIT ( $, .RADIAN. ) );
#219 = EDGE_CURVE ( 'NONE', #91, #91, #200, .T. ) ;
#220 = EDGE_CURVE ( 'NONE', #140, #140, #147, .T. ) ;
#221 = APPROVAL_DATE_TIME ( #35, #30 ) ;
#222 = ORIENTED_EDGE ( 'NONE', *, *, #220, .T. ) ;
#223 = CC_DESIGN_APPROVAL ( #199, ( #191 ) ) ;
#224 = EDGE_LOOP ( 'NONE', ( #225 ) ) ;
#225 = ORIENTED_EDGE ( 'NONE', *, *, #242, .F. ) ;
#226 = AXIS2_PLACEMENT_3D ( 'NONE', #45, #192, #138 ) ;
#227 = ADVANCED_FACE ( 'NONE', ( #126, #179 ), #56, .T. ) ;
#228 = CARTESIAN_POINT ( 'NONE',  ( -5.044917781627017298E-30, 1.761710795555143368E-31, -1.444921880435597430E-15 ) ) ;
#229 = CARTESIAN_POINT ( 'NONE',  ( 5.237222008264697666E-15, -1.828864403753139615E-16, 1.499999999999999334 ) ) ;
#230 = DATE_AND_TIME ( #127, #27 ) ;
#231 = CARTESIAN_POINT ( 'NONE',  ( 1.326762908760390170E-13, -4.653657836759941152E-15, 37.99999999999999289 ) ) ;
#232 = AXIS2_PLACEMENT_3D ( 'NONE', #231, #145, #21 ) ;
#233 = PRODUCT ( '966122', '966122', '', ( #178 ) ) ;
#234 = PLANE ( 'NONE',  #156 ) ;
#235 = EDGE_CURVE ( 'NONE', #106, #106, #92, .T. ) ;
#236 =( LENGTH_UNIT ( ) NAMED_UNIT ( * ) SI_UNIT ( .MILLI., .METRE. ) );
#237 = DIRECTION ( 'NONE',  ( 0.0000000000000000000, -1.000000000000000000, 0.0000000000000000000 ) ) ;
#238 = PERSON_AND_ORGANIZATION_ROLE ( 'design_supplier' ) ;
#239 = CARTESIAN_POINT ( 'NONE',  ( 1.316288464743860707E-13, -4.616918432785519503E-15, 37.69999999999998153 ) ) ;
#240 = CC_DESIGN_APPROVAL ( #30, ( #95 ) ) ;
#241 = DIRECTION ( 'NONE',  ( 1.000000000000000000, 0.0000000000000000000, 0.0000000000000000000 ) ) ;
#242 = EDGE_CURVE ( 'NONE', #166, #166, #168, .T. ) ;
#243 = PERSON_AND_ORGANIZATION ( #189, #210 ) ;
ENDSEC;
END-ISO-10303-21;
