ISO-10303-21;
HEADER;
FILE_DESCRIPTION (( 'STEP AP203' ),
    '1' );
FILE_NAME ('966121.step',
    '2021-11-16T15:45:00',
    ( '' ),
    ( '' ),
    'SwSTEP 2.0',
    'SolidWorks 2019',
    '' );
FILE_SCHEMA (( 'CONFIG_CONTROL_DESIGN' ));
ENDSEC;

DATA;
#1 = VERTEX_POINT ( 'NONE', #107 ) ;
#2 = EDGE_LOOP ( 'NONE', ( #173 ) ) ;
#3 = CIRCLE ( 'NONE', #139, 1.199999999999992184 ) ;
#4 = ADVANCED_FACE ( 'NONE', ( #70 ), #144, .F. ) ;
#5 = ADVANCED_FACE ( 'NONE', ( #159 ), #71, .T. ) ;
#6 = CALENDAR_DATE ( 2021, 16, 11 ) ;
#7 = EDGE_LOOP ( 'NONE', ( #9 ) ) ;
#8 = PERSON_AND_ORGANIZATION ( #147, #135 ) ;
#9 = ORIENTED_EDGE ( 'NONE', *, *, #136, .T. ) ;
#10 = PERSON_AND_ORGANIZATION_ROLE ( 'classification_officer' ) ;
#11 = CARTESIAN_POINT ( 'NONE',  ( 1.326762908760390170E-13, -4.653657836759941152E-15, 37.99999999999999289 ) ) ;
#12 = DIRECTION ( 'NONE',  ( 3.491481338843133355E-15, -1.219242935835426903E-16, 1.000000000000000000 ) ) ;
#13 = AXIS2_PLACEMENT_3D ( 'NONE', #102, #12, #133 ) ;
#14 = CARTESIAN_POINT ( 'NONE',  ( 1.316288464743860707E-13, -4.616918432785519503E-15, 37.69999999999998153 ) ) ;
#15 = FACE_BOUND ( 'NONE', #44, .T. ) ;
#16 = CARTESIAN_POINT ( 'NONE',  ( 1.316288464743860707E-13, 1.499999999999987566, 37.69999999999998153 ) ) ;
#17 = AXIS2_PLACEMENT_3D ( 'NONE', #87, #86, #161 ) ;
#18 = DIRECTION ( 'NONE',  ( 0.0000000000000000000, 0.0000000000000000000, 1.000000000000000000 ) ) ;
#19 = VERTEX_POINT ( 'NONE', #164 ) ;
#20 = PERSON_AND_ORGANIZATION ( #147, #135 ) ;
#21 = CONICAL_SURFACE ( 'NONE', #185, 2.499999999999991118, 0.2617993877991429130 ) ;
#22 = APPLICATION_PROTOCOL_DEFINITION ( 'international standard', 'config_control_design', 1994, #47 ) ;
#23 = DATE_AND_TIME ( #6, #142 ) ;
#24 = ORIENTED_EDGE ( 'NONE', *, *, #237, .T. ) ;
#25 = SECURITY_CLASSIFICATION ( '', '', #121 ) ;
#26 = APPROVAL_STATUS ( 'not_yet_approved' ) ;
#27 = ORIENTED_EDGE ( 'NONE', *, *, #39, .T. ) ;
#28 = PERSON_AND_ORGANIZATION ( #147, #135 ) ;
#29 = LOCAL_TIME ( 16, 45, 0.0000000000000000000, #194 ) ;
#30 = FACE_OUTER_BOUND ( 'NONE', #193, .T. ) ;
#31 = DIRECTION ( 'NONE',  ( 0.0000000000000000000, 1.000000000000000000, 0.0000000000000000000 ) ) ;
#32 = CARTESIAN_POINT ( 'NONE',  ( 0.0000000000000000000, 0.0000000000000000000, 0.0000000000000000000 ) ) ;
#33 = AXIS2_PLACEMENT_3D ( 'NONE', #75, #223, #168 ) ;
#34 = DIRECTION ( 'NONE',  ( 3.491481338843133355E-15, -1.224646799147353207E-16, 1.000000000000000000 ) ) ;
#35 = DIRECTION ( 'NONE',  ( 4.275831445896959482E-31, 1.000000000000000000, 1.224646799147353207E-16 ) ) ;
#36 = CARTESIAN_POINT ( 'NONE',  ( 3.480000664574459185E-14, -1.215233826336549804E-15, 9.967118042015719936 ) ) ;
#37 = CARTESIAN_POINT ( 'NONE',  ( -5.151341880576659779E-30, -0.2750000000000000777, -1.475402953831482955E-15 ) ) ;
#38 = CARTESIAN_POINT ( 'NONE',  ( 2.176962089550306090E-14, -1.499999999999990674, 6.235067234446741047 ) ) ;
#39 = EDGE_CURVE ( 'NONE', #183, #183, #229, .T. ) ;
#40 = PERSON_AND_ORGANIZATION_ROLE ( 'creator' ) ;
#41 = APPROVAL_STATUS ( 'not_yet_approved' ) ;
#42 = DATE_AND_TIME ( #226, #29 ) ;
#43 = PERSON_AND_ORGANIZATION ( #147, #135 ) ;
#44 = EDGE_LOOP ( 'NONE', ( #80 ) ) ;
#45 = PERSON_AND_ORGANIZATION ( #147, #135 ) ;
#46 = ORIENTED_EDGE ( 'NONE', *, *, #212, .T. ) ;
#47 = APPLICATION_CONTEXT ( 'configuration controlled 3d designs of mechanical parts and assemblies' ) ;
#48 = AXIS2_PLACEMENT_3D ( 'NONE', #32, #150, #148 ) ;
#49 = CC_DESIGN_DATE_AND_TIME_ASSIGNMENT ( #99, #206, ( #129 ) ) ;
#50 = AXIS2_PLACEMENT_3D ( 'NONE', #176, #179, #238 ) ;
#51 = CARTESIAN_POINT ( 'NONE',  ( 1.326762908760390170E-13, -4.653657836759941152E-15, 37.99999999999999289 ) ) ;
#52 = DIRECTION ( 'NONE',  ( -4.275831445896958607E-31, -1.000000000000000000, -1.224646799147353207E-16 ) ) ;
#53 = DESIGN_CONTEXT ( 'detailed design', #47, 'design' ) ;
#54 = CARTESIAN_POINT ( 'NONE',  ( 4.888073874380383542E-15, 0.0000000000000000000, 1.399999999999999023 ) ) ;
#55 = ADVANCED_BREP_SHAPE_REPRESENTATION ( '966121', ( #116, #115, #166 ), #214 ) ;
#56 = DIRECTION ( 'NONE',  ( 3.491481338843133355E-15, -1.219242935835426903E-16, 1.000000000000000000 ) ) ;
#57 = AXIS2_PLACEMENT_3D ( 'NONE', #215, #56, #106 ) ;
#58 = PERSON_AND_ORGANIZATION_ROLE ( 'design_owner' ) ;
#59 = VERTEX_POINT ( 'NONE', #74 ) ;
#60 = DIRECTION ( 'NONE',  ( 0.0000000000000000000, -1.000000000000000000, 0.0000000000000000000 ) ) ;
#61 = CALENDAR_DATE ( 2021, 16, 11 ) ;
#62 = CLOSED_SHELL ( 'NONE', ( #118, #195, #79, #219, #143, #4 ) ) ;
#63 = DATE_AND_TIME ( #61, #163 ) ;
#64 = EDGE_LOOP ( 'NONE', ( #27 ) ) ;
#65 = DATE_TIME_ROLE ( 'classification_date' ) ;
#66 = ORIENTED_EDGE ( 'NONE', *, *, #145, .T. ) ;
#67 = DIRECTION ( 'NONE',  ( -4.275831445896958607E-31, -1.000000000000000000, -1.224646799147353207E-16 ) ) ;
#68 = AXIS2_PLACEMENT_3D ( 'NONE', #69, #233, #67 ) ;
#69 = CARTESIAN_POINT ( 'NONE',  ( -2.137917073001454058E-30, 7.498803648657679327E-32, -6.123237862442165323E-16 ) ) ;
#70 = FACE_OUTER_BOUND ( 'NONE', #137, .T. ) ;
#71 = PLANE ( 'NONE',  #93 ) ;
#72 = CARTESIAN_POINT ( 'NONE',  ( 1.326762908760390170E-13, 8.998558695971017012E-33, 37.99999999999999289 ) ) ;
#73 =( NAMED_UNIT ( * ) PLANE_ANGLE_UNIT ( ) SI_UNIT ( $, .RADIAN. ) );
#74 = CARTESIAN_POINT ( 'NONE',  ( 6.695397606605640712E-15, -0.3431483474218605112, 1.917638090205028067 ) ) ;
#75 = CARTESIAN_POINT ( 'NONE',  ( 2.176962089550306090E-14, -7.602061680058120718E-16, 6.235067234446741047 ) ) ;
#76 = CC_DESIGN_SECURITY_CLASSIFICATION ( #25, ( #92 ) ) ;
#77 = APPROVAL_DATE_TIME ( #23, #97 ) ;
#78 = EDGE_LOOP ( 'NONE', ( #138 ) ) ;
#79 = ADVANCED_FACE ( 'NONE', ( #101 ), #213, .F. ) ;
#80 = ORIENTED_EDGE ( 'NONE', *, *, #210, .T. ) ;
#81 = ORIENTED_EDGE ( 'NONE', *, *, #136, .F. ) ;
#82 = CIRCLE ( 'NONE', #162, 0.2750000000000002442 ) ;
#83 = COORDINATED_UNIVERSAL_TIME_OFFSET ( 1, 0, .AHEAD. ) ;
#84 = CC_DESIGN_PERSON_AND_ORGANIZATION_ASSIGNMENT ( #165, #40, ( #129 ) ) ;
#85 = FACE_OUTER_BOUND ( 'NONE', #172, .T. ) ;
#86 = DIRECTION ( 'NONE',  ( 3.491481338843133355E-15, -1.224646799147353207E-16, 1.000000000000000000 ) ) ;
#87 = CARTESIAN_POINT ( 'NONE',  ( 4.888073874380385909E-15, -2.023844055306280203E-16, 1.399999999999999689 ) ) ;
#88 = DIRECTION ( 'NONE',  ( 0.0000000000000000000, 1.000000000000000000, 0.0000000000000000000 ) ) ;
#89 = DIRECTION ( 'NONE',  ( 3.491481338843133355E-15, -1.219242935835426903E-16, 1.000000000000000000 ) ) ;
#90 = COORDINATED_UNIVERSAL_TIME_OFFSET ( 1, 0, .AHEAD. ) ;
#91 = PERSON_AND_ORGANIZATION ( #147, #135 ) ;
#92 = PRODUCT_DEFINITION_FORMATION_WITH_SPECIFIED_SOURCE ( 'ANY', '', #187, .NOT_KNOWN. ) ;
#93 = AXIS2_PLACEMENT_3D ( 'NONE', #216, #34, #52 ) ;
#94 = CARTESIAN_POINT ( 'NONE',  ( 0.0000000000000000000, 0.0000000000000000000, 0.0000000000000000000 ) ) ;
#95 = EDGE_LOOP ( 'NONE', ( #81 ) ) ;
#96 = CIRCLE ( 'NONE', #13, 0.2750000000000000777 ) ;
#97 = APPROVAL ( #41, 'UNSPECIFIED' ) ;
#98 = CONICAL_SURFACE ( 'NONE', #236, 1.199999999999992184, 0.7853981633974338461 ) ;
#99 = DATE_AND_TIME ( #130, #222 ) ;
#100 = ADVANCED_FACE ( 'NONE', ( #240, #198 ), #128, .T. ) ;
#101 = FACE_OUTER_BOUND ( 'NONE', #2, .T. ) ;
#102 = CARTESIAN_POINT ( 'NONE',  ( -5.034275371732052909E-30, 1.757994412213681810E-31, -1.441873773096008681E-15 ) ) ;
#103 = FACE_OUTER_BOUND ( 'NONE', #208, .T. ) ;
#104 = DIRECTION ( 'NONE',  ( 3.491481338843133355E-15, -1.219242935835426903E-16, 1.000000000000000000 ) ) ;
#105 = PRODUCT_DEFINITION_SHAPE ( 'NONE', 'NONE',  #129 ) ;
#106 = DIRECTION ( 'NONE',  ( 0.0000000000000000000, -1.000000000000000000, 0.0000000000000000000 ) ) ;
#107 = CARTESIAN_POINT ( 'NONE',  ( 1.326762908760390170E-13, 1.199999999999987521, 37.99999999999999289 ) ) ;
#108 = CC_DESIGN_PERSON_AND_ORGANIZATION_ASSIGNMENT ( #28, #10, ( #25 ) ) ;
#109 = CC_DESIGN_APPROVAL ( #220, ( #25 ) ) ;
#110 =( NAMED_UNIT ( * ) SI_UNIT ( $, .STERADIAN. ) SOLID_ANGLE_UNIT ( ) );
#111 = CIRCLE ( 'NONE', #180, 1.499999999999992006 ) ;
#112 = APPLICATION_PROTOCOL_DEFINITION ( 'international standard', 'config_control_design', 1994, #120 ) ;
#113 = VERTEX_POINT ( 'NONE', #38 ) ;
#114 = COORDINATED_UNIVERSAL_TIME_OFFSET ( 1, 0, .AHEAD. ) ;
#115 = MANIFOLD_SOLID_BREP ( 'Corps-Déplacer/Copier1[2]', #190 ) ;
#116 = MANIFOLD_SOLID_BREP ( 'Corps-Déplacer/Copier1[1]', #62 ) ;
#117 = EDGE_LOOP ( 'NONE', ( #175 ) ) ;
#118 = ADVANCED_FACE ( 'NONE', ( #103, #218 ), #199, .T. ) ;
#119 = CC_DESIGN_PERSON_AND_ORGANIZATION_ASSIGNMENT ( #20, #58, ( #187 ) ) ;
#120 = APPLICATION_CONTEXT ( 'configuration controlled 3d designs of mechanical parts and assemblies' ) ;
#121 = SECURITY_CLASSIFICATION_LEVEL ( 'unclassified' ) ;
#122 = SHAPE_DEFINITION_REPRESENTATION ( #105, #55 ) ;
#123 = ORIENTED_EDGE ( 'NONE', *, *, #158, .T. ) ;
#124 = FACE_OUTER_BOUND ( 'NONE', #95, .T. ) ;
#125 = TOROIDAL_SURFACE ( 'NONE', #191, 2.274999999999999911, 2.000000000000000000 ) ;
#126 = DIRECTION ( 'NONE',  ( -3.491481338843133355E-15, 1.224646799147353207E-16, -1.000000000000000000 ) ) ;
#127 = DIRECTION ( 'NONE',  ( -3.491481338843133355E-15, 1.224646799147353207E-16, -1.000000000000000000 ) ) ;
#128 = CYLINDRICAL_SURFACE ( 'NONE', #48, 0.2750000000000001887 ) ;
#129 = PRODUCT_DEFINITION ( 'UNKNOWN', '', #92, #53 ) ;
#130 = CALENDAR_DATE ( 2021, 16, 11 ) ;
#131 = DATE_AND_TIME ( #243, #132 ) ;
#132 = LOCAL_TIME ( 16, 45, 0.0000000000000000000, #90 ) ;
#133 = DIRECTION ( 'NONE',  ( -4.256963957985714144E-31, -1.000000000000000000, -1.219242935835423944E-16 ) ) ;
#134 = MECHANICAL_CONTEXT ( 'NONE', #120, 'mechanical' ) ;
#135 = ORGANIZATION ( 'UNSPECIFIED', 'UNSPECIFIED', '' ) ;
#136 = EDGE_CURVE ( 'NONE', #59, #59, #149, .T. ) ;
#137 = EDGE_LOOP ( 'NONE', ( #156 ) ) ;
#138 = ORIENTED_EDGE ( 'NONE', *, *, #39, .F. ) ;
#139 = AXIS2_PLACEMENT_3D ( 'NONE', #51, #197, #31 ) ;
#140 = ORIENTED_EDGE ( 'NONE', *, *, #212, .F. ) ;
#141 = CARTESIAN_POINT ( 'NONE',  ( 4.888073874380383542E-15, -1.706940110169596530E-16, 1.399999999999999023 ) ) ;
#142 = LOCAL_TIME ( 16, 45, 0.0000000000000000000, #174 ) ;
#143 = ADVANCED_FACE ( 'NONE', ( #30, #124 ), #125, .F. ) ;
#144 = PLANE ( 'NONE',  #17 ) ;
#145 = EDGE_CURVE ( 'NONE', #202, #202, #111, .T. ) ;
#146 = CARTESIAN_POINT ( 'NONE',  ( 0.0000000000000000000, 0.0000000000000000000, 0.0000000000000000000 ) ) ;
#147 = PERSON ( 'UNSPECIFIED', 'UNSPECIFIED', 'UNSPECIFIED', ('UNSPECIFIED'), ('UNSPECIFIED'), ('UNSPECIFIED') ) ;
#148 = DIRECTION ( 'NONE',  ( -4.256963957985709765E-31, -1.000000000000000000, -1.219242935835426903E-16 ) ) ;
#149 = CIRCLE ( 'NONE', #57, 0.3431483474218602892 ) ;
#150 = DIRECTION ( 'NONE',  ( 3.491481338843133355E-15, -1.219242935835426903E-16, 1.000000000000000000 ) ) ;
#151 = DIRECTION ( 'NONE',  ( 1.000000000000000000, 0.0000000000000000000, 0.0000000000000000000 ) ) ;
#152 = CC_DESIGN_PERSON_AND_ORGANIZATION_ASSIGNMENT ( #155, #170, ( #92 ) ) ;
#153 = CC_DESIGN_PERSON_AND_ORGANIZATION_ASSIGNMENT ( #43, #209, ( #92 ) ) ;
#154 = AXIS2_PLACEMENT_3D ( 'NONE', #72, #127, #177 ) ;
#155 = PERSON_AND_ORGANIZATION ( #147, #135 ) ;
#156 = ORIENTED_EDGE ( 'NONE', *, *, #158, .F. ) ;
#157 = PLANE ( 'NONE',  #68 ) ;
#158 = EDGE_CURVE ( 'NONE', #19, #19, #82, .T. ) ;
#159 = FACE_OUTER_BOUND ( 'NONE', #64, .T. ) ;
#160 = DIRECTION ( 'NONE',  ( 0.0000000000000000000, -1.000000000000000000, 0.0000000000000000000 ) ) ;
#161 = DIRECTION ( 'NONE',  ( -4.275831445896958607E-31, -1.000000000000000000, -1.224646799147353207E-16 ) ) ;
#162 = AXIS2_PLACEMENT_3D ( 'NONE', #141, #182, #160 ) ;
#163 = LOCAL_TIME ( 16, 45, 0.0000000000000000000, #83 ) ;
#164 = CARTESIAN_POINT ( 'NONE',  ( 4.888073874380383542E-15, -0.2750000000000004108, 1.399999999999999023 ) ) ;
#165 = PERSON_AND_ORGANIZATION ( #147, #135 ) ;
#166 = AXIS2_PLACEMENT_3D ( 'NONE', #94, #18, #151 ) ;
#167 = APPROVAL_STATUS ( 'not_yet_approved' ) ;
#168 = DIRECTION ( 'NONE',  ( 0.0000000000000000000, -1.000000000000000000, 0.0000000000000000000 ) ) ;
#169 = APPROVAL ( #167, 'UNSPECIFIED' ) ;
#170 = PERSON_AND_ORGANIZATION_ROLE ( 'creator' ) ;
#171 = APPROVAL_PERSON_ORGANIZATION ( #91, #169, #186 ) ;
#172 = EDGE_LOOP ( 'NONE', ( #140 ) ) ;
#173 = ORIENTED_EDGE ( 'NONE', *, *, #210, .F. ) ;
#174 = COORDINATED_UNIVERSAL_TIME_OFFSET ( 1, 0, .AHEAD. ) ;
#175 = ORIENTED_EDGE ( 'NONE', *, *, #145, .F. ) ;
#176 = CARTESIAN_POINT ( 'NONE',  ( 4.888073874380383542E-15, -1.706940110169596530E-16, 1.399999999999999023 ) ) ;
#177 = DIRECTION ( 'NONE',  ( 4.275831445896958607E-31, 1.000000000000000000, 1.224646799147353207E-16 ) ) ;
#178 = UNCERTAINTY_MEASURE_WITH_UNIT (LENGTH_MEASURE( 1.000000000000000082E-05 ), #204, 'distance_accuracy_value', 'NONE');
#179 = DIRECTION ( 'NONE',  ( 3.491481338843133355E-15, -1.219242935835426903E-16, 1.000000000000000000 ) ) ;
#180 = AXIS2_PLACEMENT_3D ( 'NONE', #14, #235, #196 ) ;
#181 = DIRECTION ( 'NONE',  ( -4.319081605712631913E-31, -1.000000000000000000, -1.219242935835426903E-16 ) ) ;
#182 = DIRECTION ( 'NONE',  ( 3.491481338843133355E-15, -1.219242935835426903E-16, 1.000000000000000000 ) ) ;
#183 = VERTEX_POINT ( 'NONE', #242 ) ;
#184 = AXIS2_PLACEMENT_3D ( 'NONE', #146, #201, #35 ) ;
#185 = AXIS2_PLACEMENT_3D ( 'NONE', #36, #89, #60 ) ;
#186 = APPROVAL_ROLE ( '' ) ;
#187 = PRODUCT ( '966121', '966121', '', ( #134 ) ) ;
#188 = FACE_OUTER_BOUND ( 'NONE', #230, .T. ) ;
#189 = APPROVAL_PERSON_ORGANIZATION ( #8, #97, #207 ) ;
#190 = CLOSED_SHELL ( 'NONE', ( #5, #100, #203 ) ) ;
#191 = AXIS2_PLACEMENT_3D ( 'NONE', #54, #104, #181 ) ;
#192 = APPROVAL_ROLE ( '' ) ;
#193 = EDGE_LOOP ( 'NONE', ( #123 ) ) ;
#194 = COORDINATED_UNIVERSAL_TIME_OFFSET ( 1, 0, .AHEAD. ) ;
#195 = ADVANCED_FACE ( 'NONE', ( #239, #15 ), #98, .T. ) ;
#196 = DIRECTION ( 'NONE',  ( 0.0000000000000000000, 1.000000000000000000, 0.0000000000000000000 ) ) ;
#197 = DIRECTION ( 'NONE',  ( -3.491481338843133355E-15, 1.224646799147353207E-16, -1.000000000000000000 ) ) ;
#198 = FACE_OUTER_BOUND ( 'NONE', #78, .T. ) ;
#199 = CYLINDRICAL_SURFACE ( 'NONE', #184, 1.499999999999989786 ) ;
#200 = CC_DESIGN_APPROVAL ( #169, ( #129 ) ) ;
#201 = DIRECTION ( 'NONE',  ( -3.491481338843133355E-15, 1.224646799147353207E-16, -1.000000000000000000 ) ) ;
#202 = VERTEX_POINT ( 'NONE', #16 ) ;
#203 = ADVANCED_FACE ( 'NONE', ( #85 ), #157, .F. ) ;
#204 =( LENGTH_UNIT ( ) NAMED_UNIT ( * ) SI_UNIT ( .MILLI., .METRE. ) );
#205 = APPROVAL_DATE_TIME ( #131, #169 ) ;
#206 = DATE_TIME_ROLE ( 'creation_date' ) ;
#207 = APPROVAL_ROLE ( '' ) ;
#208 = EDGE_LOOP ( 'NONE', ( #66 ) ) ;
#209 = PERSON_AND_ORGANIZATION_ROLE ( 'design_supplier' ) ;
#210 = EDGE_CURVE ( 'NONE', #1, #1, #3, .T. ) ;
#211 = ORIENTED_EDGE ( 'NONE', *, *, #237, .F. ) ;
#212 = EDGE_CURVE ( 'NONE', #241, #241, #96, .T. ) ;
#213 = PLANE ( 'NONE',  #154 ) ;
#214 =( GEOMETRIC_REPRESENTATION_CONTEXT ( 3 ) GLOBAL_UNCERTAINTY_ASSIGNED_CONTEXT ( ( #178 ) ) GLOBAL_UNIT_ASSIGNED_CONTEXT ( ( #204, #73, #110 ) ) REPRESENTATION_CONTEXT ( 'NONE', 'WORKASPACE' ) );
#215 = CARTESIAN_POINT ( 'NONE',  ( 6.695397606605640712E-15, -2.338066694971420013E-16, 1.917638090205028067 ) ) ;
#216 = CARTESIAN_POINT ( 'NONE',  ( 4.888073874380385909E-15, -2.023844055306280203E-16, 1.399999999999999689 ) ) ;
#217 = CC_DESIGN_APPROVAL ( #97, ( #92 ) ) ;
#218 = FACE_OUTER_BOUND ( 'NONE', #225, .T. ) ;
#219 = ADVANCED_FACE ( 'NONE', ( #221, #188 ), #21, .T. ) ;
#220 = APPROVAL ( #26, 'UNSPECIFIED' ) ;
#221 = FACE_BOUND ( 'NONE', #7, .T. ) ;
#222 = LOCAL_TIME ( 16, 45, 0.0000000000000000000, #114 ) ;
#223 = DIRECTION ( 'NONE',  ( -3.491481338843133355E-15, 1.219242935835426903E-16, -1.000000000000000000 ) ) ;
#224 = APPROVAL_DATE_TIME ( #63, #220 ) ;
#225 = EDGE_LOOP ( 'NONE', ( #211 ) ) ;
#226 = CALENDAR_DATE ( 2021, 16, 11 ) ;
#227 = CC_DESIGN_DATE_AND_TIME_ASSIGNMENT ( #42, #65, ( #25 ) ) ;
#228 = APPROVAL_PERSON_ORGANIZATION ( #45, #220, #192 ) ;
#229 = CIRCLE ( 'NONE', #50, 0.2750000000000002442 ) ;
#230 = EDGE_LOOP ( 'NONE', ( #24 ) ) ;
#231 = PRODUCT_RELATED_PRODUCT_CATEGORY ( 'detail', '', ( #187 ) ) ;
#232 = EDGE_LOOP ( 'NONE', ( #46 ) ) ;
#233 = DIRECTION ( 'NONE',  ( 3.491481338843133355E-15, -1.224646799147353207E-16, 1.000000000000000000 ) ) ;
#234 = CIRCLE ( 'NONE', #33, 1.499999999999989786 ) ;
#235 = DIRECTION ( 'NONE',  ( -3.491481338843133355E-15, 1.224646799147353207E-16, -1.000000000000000000 ) ) ;
#236 = AXIS2_PLACEMENT_3D ( 'NONE', #11, #126, #88 ) ;
#237 = EDGE_CURVE ( 'NONE', #113, #113, #234, .T. ) ;
#238 = DIRECTION ( 'NONE',  ( 0.0000000000000000000, -1.000000000000000000, 0.0000000000000000000 ) ) ;
#239 = FACE_OUTER_BOUND ( 'NONE', #117, .T. ) ;
#240 = FACE_OUTER_BOUND ( 'NONE', #232, .T. ) ;
#241 = VERTEX_POINT ( 'NONE', #37 ) ;
#242 = CARTESIAN_POINT ( 'NONE',  ( 4.888073874380383542E-15, -0.2750000000000004108, 1.399999999999999023 ) ) ;
#243 = CALENDAR_DATE ( 2021, 16, 11 ) ;
ENDSEC;
END-ISO-10303-21;
