ISO-10303-21;
HEADER;
FILE_DESCRIPTION (( 'STEP AP203' ),
    '1' );
FILE_NAME ('966120.step',
    '2021-11-16T15:44:59',
    ( '' ),
    ( '' ),
    'SwSTEP 2.0',
    'SolidWorks 2019',
    '' );
FILE_SCHEMA (( 'CONFIG_CONTROL_DESIGN' ));
ENDSEC;

DATA;
#1 = CARTESIAN_POINT ( 'NONE',  ( 4.364351673553913539E-15, 0.0000000000000000000, 1.249999999999999112 ) ) ;
#2 = DIRECTION ( 'NONE',  ( 0.0000000000000000000, -1.000000000000000000, 0.0000000000000000000 ) ) ;
#3 = CC_DESIGN_DATE_AND_TIME_ASSIGNMENT ( #47, #123, ( #149 ) ) ;
#4 = AXIS2_PLACEMENT_3D ( 'NONE', #19, #41, #17 ) ;
#5 = FACE_OUTER_BOUND ( 'NONE', #132, .T. ) ;
#6 = VERTEX_POINT ( 'NONE', #152 ) ;
#7 =( NAMED_UNIT ( * ) PLANE_ANGLE_UNIT ( ) SI_UNIT ( $, .RADIAN. ) );
#8 = CARTESIAN_POINT ( 'NONE',  ( 0.0000000000000000000, 0.0000000000000000000, 0.0000000000000000000 ) ) ;
#9 = DIRECTION ( 'NONE',  ( -3.491481338843133355E-15, 1.224646799147353207E-16, -1.000000000000000000 ) ) ;
#10 = CC_DESIGN_DATE_AND_TIME_ASSIGNMENT ( #12, #121, ( #96 ) ) ;
#11 = DATE_AND_TIME ( #31, #119 ) ;
#12 = DATE_AND_TIME ( #233, #241 ) ;
#13 = CC_DESIGN_PERSON_AND_ORGANIZATION_ASSIGNMENT ( #203, #46, ( #149 ) ) ;
#14 = PERSON_AND_ORGANIZATION_ROLE ( 'creator' ) ;
#15 = EDGE_CURVE ( 'NONE', #146, #146, #84, .T. ) ;
#16 = CARTESIAN_POINT ( 'NONE',  ( 1.326762908760390170E-13, -4.653657836759941152E-15, 37.99999999999999289 ) ) ;
#17 = DIRECTION ( 'NONE',  ( 4.275831445896958607E-31, 1.000000000000000000, 1.224646799147353207E-16 ) ) ;
#18 = EDGE_LOOP ( 'NONE', ( #190 ) ) ;
#19 = CARTESIAN_POINT ( 'NONE',  ( 1.326762908760390170E-13, 8.998558695971017012E-33, 37.99999999999999289 ) ) ;
#20 = EDGE_LOOP ( 'NONE', ( #71 ) ) ;
#21 = CARTESIAN_POINT ( 'NONE',  ( 6.171675405779171497E-15, -0.3181483474218606555, 1.767638090205028156 ) ) ;
#22 = PRODUCT ( '966120', '966120', '', ( #78 ) ) ;
#23 = DIRECTION ( 'NONE',  ( 3.491481338843133355E-15, -1.219242935835426903E-16, 1.000000000000000000 ) ) ;
#24 = CARTESIAN_POINT ( 'NONE',  ( 4.364351673553913539E-15, -0.2500000000000001110, 1.249999999999999112 ) ) ;
#25 = EDGE_LOOP ( 'NONE', ( #212 ) ) ;
#26 =( LENGTH_UNIT ( ) NAMED_UNIT ( * ) SI_UNIT ( .MILLI., .METRE. ) );
#27 = DIRECTION ( 'NONE',  ( -3.491481338843133355E-15, 1.224646799147353207E-16, -1.000000000000000000 ) ) ;
#28 = DIRECTION ( 'NONE',  ( -4.275831445896958607E-31, -1.000000000000000000, -1.224646799147353207E-16 ) ) ;
#29 = ADVANCED_FACE ( 'NONE', ( #76, #97 ), #173, .T. ) ;
#30 = APPLICATION_CONTEXT ( 'configuration controlled 3d designs of mechanical parts and assemblies' ) ;
#31 = CALENDAR_DATE ( 2021, 16, 11 ) ;
#32 = APPROVAL_DATE_TIME ( #11, #34 ) ;
#33 = PLANE ( 'NONE',  #68 ) ;
#34 = APPROVAL ( #161, 'UNSPECIFIED' ) ;
#35 = EDGE_LOOP ( 'NONE', ( #39 ) ) ;
#36 = DIRECTION ( 'NONE',  ( 3.491481338843133355E-15, -1.224646799147353207E-16, 1.000000000000000000 ) ) ;
#37 = VERTEX_POINT ( 'NONE', #111 ) ;
#38 = AXIS2_PLACEMENT_3D ( 'NONE', #8, #131, #169 ) ;
#39 = ORIENTED_EDGE ( 'NONE', *, *, #15, .T. ) ;
#40 = EDGE_CURVE ( 'NONE', #114, #114, #236, .T. ) ;
#41 = DIRECTION ( 'NONE',  ( -3.491481338843133355E-15, 1.224646799147353207E-16, -1.000000000000000000 ) ) ;
#42 = APPROVAL_ROLE ( '' ) ;
#43 = DIRECTION ( 'NONE',  ( 3.491481338843133355E-15, -1.224646799147353207E-16, 1.000000000000000000 ) ) ;
#44 = CIRCLE ( 'NONE', #219, 0.2499999999999999445 ) ;
#45 = CC_DESIGN_PERSON_AND_ORGANIZATION_ASSIGNMENT ( #218, #177, ( #22 ) ) ;
#46 = PERSON_AND_ORGANIZATION_ROLE ( 'classification_officer' ) ;
#47 = DATE_AND_TIME ( #213, #139 ) ;
#48 = AXIS2_PLACEMENT_3D ( 'NONE', #208, #36, #109 ) ;
#49 = EDGE_CURVE ( 'NONE', #6, #6, #65, .T. ) ;
#50 = MANIFOLD_SOLID_BREP ( 'Corps-Déplacer/Copier1[1]', #171 ) ;
#51 = DIRECTION ( 'NONE',  ( 3.491481338843133355E-15, -1.224646799147353207E-16, 1.000000000000000000 ) ) ;
#52 = ADVANCED_FACE ( 'NONE', ( #151 ), #72, .T. ) ;
#53 = CYLINDRICAL_SURFACE ( 'NONE', #186, 1.499999999999989786 ) ;
#54 = PLANE ( 'NONE',  #48 ) ;
#55 = EDGE_LOOP ( 'NONE', ( #108 ) ) ;
#56 = ORIENTED_EDGE ( 'NONE', *, *, #85, .T. ) ;
#57 = CIRCLE ( 'NONE', #153, 1.499999999999992006 ) ;
#58 = ORIENTED_EDGE ( 'NONE', *, *, #239, .T. ) ;
#59 = CARTESIAN_POINT ( 'NONE',  ( 6.171675405779171497E-15, -2.155180254596105633E-16, 1.767638090205028156 ) ) ;
#60 = APPLICATION_PROTOCOL_DEFINITION ( 'international standard', 'config_control_design', 1994, #79 ) ;
#61 = EDGE_CURVE ( 'NONE', #210, #210, #67, .T. ) ;
#62 = FACE_OUTER_BOUND ( 'NONE', #20, .T. ) ;
#63 = UNCERTAINTY_MEASURE_WITH_UNIT (LENGTH_MEASURE( 1.000000000000000082E-05 ), #26, 'distance_accuracy_value', 'NONE');
#64 = PERSON_AND_ORGANIZATION ( #240, #105 ) ;
#65 = CIRCLE ( 'NONE', #94, 1.499999999999989786 ) ;
#66 = APPROVAL_DATE_TIME ( #140, #199 ) ;
#67 = CIRCLE ( 'NONE', #211, 0.2499999999999999445 ) ;
#68 = AXIS2_PLACEMENT_3D ( 'NONE', #106, #43, #28 ) ;
#69 = DIRECTION ( 'NONE',  ( 3.491481338843133355E-15, -1.219242935835426903E-16, 1.000000000000000000 ) ) ;
#70 = DIRECTION ( 'NONE',  ( 0.0000000000000000000, -1.000000000000000000, 0.0000000000000000000 ) ) ;
#71 = ORIENTED_EDGE ( 'NONE', *, *, #85, .F. ) ;
#72 = PLANE ( 'NONE',  #222 ) ;
#73 = DIRECTION ( 'NONE',  ( 0.0000000000000000000, -1.000000000000000000, 0.0000000000000000000 ) ) ;
#74 = EDGE_LOOP ( 'NONE', ( #56 ) ) ;
#75 = AXIS2_PLACEMENT_3D ( 'NONE', #176, #141, #220 ) ;
#76 = FACE_OUTER_BOUND ( 'NONE', #193, .T. ) ;
#77 = DIRECTION ( 'NONE',  ( 4.275831445896959482E-31, 1.000000000000000000, 1.224646799147353207E-16 ) ) ;
#78 = MECHANICAL_CONTEXT ( 'NONE', #79, 'mechanical' ) ;
#79 = APPLICATION_CONTEXT ( 'configuration controlled 3d designs of mechanical parts and assemblies' ) ;
#80 = DATE_AND_TIME ( #204, #102 ) ;
#81 = CALENDAR_DATE ( 2021, 16, 11 ) ;
#82 = ADVANCED_FACE ( 'NONE', ( #225 ), #54, .F. ) ;
#83 = ADVANCED_FACE ( 'NONE', ( #191, #93 ), #229, .T. ) ;
#84 = CIRCLE ( 'NONE', #112, 1.199999999999992184 ) ;
#85 = EDGE_CURVE ( 'NONE', #37, #37, #57, .T. ) ;
#86 = CC_DESIGN_APPROVAL ( #142, ( #118 ) ) ;
#87 = CARTESIAN_POINT ( 'NONE',  ( -5.023632961837089222E-30, 1.754278028872220689E-31, -1.438825665756420325E-15 ) ) ;
#88 = DIRECTION ( 'NONE',  ( -3.491481338843133355E-15, 1.224646799147353207E-16, -1.000000000000000000 ) ) ;
#89 = EDGE_LOOP ( 'NONE', ( #116 ) ) ;
#90 = DIRECTION ( 'NONE',  ( -3.491481338843133355E-15, 1.224646799147353207E-16, -1.000000000000000000 ) ) ;
#91 = ORIENTED_EDGE ( 'NONE', *, *, #40, .F. ) ;
#92 = CARTESIAN_POINT ( 'NONE',  ( 1.326762908760390170E-13, 1.199999999999987521, 37.99999999999999289 ) ) ;
#93 = FACE_OUTER_BOUND ( 'NONE', #227, .T. ) ;
#94 = AXIS2_PLACEMENT_3D ( 'NONE', #107, #223, #2 ) ;
#95 = AXIS2_PLACEMENT_3D ( 'NONE', #87, #164, #243 ) ;
#96 = PRODUCT_DEFINITION ( 'UNKNOWN', '', #118, #215 ) ;
#97 = FACE_OUTER_BOUND ( 'NONE', #55, .T. ) ;
#98 = CARTESIAN_POINT ( 'NONE',  ( 4.364351673553915905E-15, -1.807003620809179069E-16, 1.249999999999999778 ) ) ;
#99 = PERSON_AND_ORGANIZATION ( #240, #105 ) ;
#100 = APPROVAL_ROLE ( '' ) ;
#101 = SECURITY_CLASSIFICATION_LEVEL ( 'unclassified' ) ;
#102 = LOCAL_TIME ( 16, 44, 59.00000000000000000, #104 ) ;
#103 = SHAPE_DEFINITION_REPRESENTATION ( #165, #175 ) ;
#104 = COORDINATED_UNIVERSAL_TIME_OFFSET ( 1, 0, .AHEAD. ) ;
#105 = ORGANIZATION ( 'UNSPECIFIED', 'UNSPECIFIED', '' ) ;
#106 = CARTESIAN_POINT ( 'NONE',  ( -2.137917073001454058E-30, 7.498803648657679327E-32, -6.123237862442165323E-16 ) ) ;
#107 = CARTESIAN_POINT ( 'NONE',  ( 2.157165833843262278E-14, -7.532932154265486998E-16, 6.178368504635963099 ) ) ;
#108 = ORIENTED_EDGE ( 'NONE', *, *, #61, .F. ) ;
#109 = DIRECTION ( 'NONE',  ( -4.275831445896958607E-31, -1.000000000000000000, -1.224646799147353207E-16 ) ) ;
#110 = ORIENTED_EDGE ( 'NONE', *, *, #49, .T. ) ;
#111 = CARTESIAN_POINT ( 'NONE',  ( 1.316288464743860707E-13, 1.499999999999987566, 37.69999999999998153 ) ) ;
#112 = AXIS2_PLACEMENT_3D ( 'NONE', #226, #27, #195 ) ;
#113 = EDGE_LOOP ( 'NONE', ( #91 ) ) ;
#114 = VERTEX_POINT ( 'NONE', #21 ) ;
#115 = ADVANCED_FACE ( 'NONE', ( #5, #207 ), #185, .F. ) ;
#116 = ORIENTED_EDGE ( 'NONE', *, *, #40, .T. ) ;
#117 = FACE_OUTER_BOUND ( 'NONE', #74, .T. ) ;
#118 = PRODUCT_DEFINITION_FORMATION_WITH_SPECIFIED_SOURCE ( 'ANY', '', #22, .NOT_KNOWN. ) ;
#119 = LOCAL_TIME ( 16, 44, 59.00000000000000000, #201 ) ;
#120 = PERSON_AND_ORGANIZATION ( #240, #105 ) ;
#121 = DATE_TIME_ROLE ( 'creation_date' ) ;
#122 = ADVANCED_FACE ( 'NONE', ( #136 ), #232, .F. ) ;
#123 = DATE_TIME_ROLE ( 'classification_date' ) ;
#124 = AXIS2_PLACEMENT_3D ( 'NONE', #172, #69, #73 ) ;
#125 = PERSON_AND_ORGANIZATION ( #240, #105 ) ;
#126 = COORDINATED_UNIVERSAL_TIME_OFFSET ( 1, 0, .AHEAD. ) ;
#127 = PRODUCT_RELATED_PRODUCT_CATEGORY ( 'detail', '', ( #22 ) ) ;
#128 = DIRECTION ( 'NONE',  ( 0.0000000000000000000, -1.000000000000000000, 0.0000000000000000000 ) ) ;
#129 = CARTESIAN_POINT ( 'NONE',  ( 4.364351673553913539E-15, -1.524053669794282642E-16, 1.249999999999999112 ) ) ;
#130 = CC_DESIGN_PERSON_AND_ORGANIZATION_ASSIGNMENT ( #99, #14, ( #96 ) ) ;
#131 = DIRECTION ( 'NONE',  ( 3.491481338843133355E-15, -1.219242935835426903E-16, 1.000000000000000000 ) ) ;
#132 = EDGE_LOOP ( 'NONE', ( #209 ) ) ;
#133 = MANIFOLD_SOLID_BREP ( 'Corps-Déplacer/Copier1[2]', #145 ) ;
#134 = CC_DESIGN_PERSON_AND_ORGANIZATION_ASSIGNMENT ( #162, #160, ( #118 ) ) ;
#135 = ORIENTED_EDGE ( 'NONE', *, *, #61, .T. ) ;
#136 = FACE_OUTER_BOUND ( 'NONE', #148, .T. ) ;
#137 = APPROVAL_DATE_TIME ( #80, #142 ) ;
#138 = DIRECTION ( 'NONE',  ( 0.0000000000000000000, 1.000000000000000000, 0.0000000000000000000 ) ) ;
#139 = LOCAL_TIME ( 16, 44, 59.00000000000000000, #157 ) ;
#140 = DATE_AND_TIME ( #81, #150 ) ;
#141 = DIRECTION ( 'NONE',  ( 0.0000000000000000000, 0.0000000000000000000, 1.000000000000000000 ) ) ;
#142 = APPROVAL ( #237, 'UNSPECIFIED' ) ;
#143 = PERSON_AND_ORGANIZATION_ROLE ( 'design_supplier' ) ;
#144 = APPROVAL_PERSON_ORGANIZATION ( #120, #34, #42 ) ;
#145 = CLOSED_SHELL ( 'NONE', ( #52, #29, #167 ) ) ;
#146 = VERTEX_POINT ( 'NONE', #92 ) ;
#147 = DIRECTION ( 'NONE',  ( 0.0000000000000000000, 1.000000000000000000, 0.0000000000000000000 ) ) ;
#148 = EDGE_LOOP ( 'NONE', ( #155 ) ) ;
#149 = SECURITY_CLASSIFICATION ( '', '', #101 ) ;
#150 = LOCAL_TIME ( 16, 44, 59.00000000000000000, #217 ) ;
#151 = FACE_OUTER_BOUND ( 'NONE', #170, .T. ) ;
#152 = CARTESIAN_POINT ( 'NONE',  ( 2.157165833843262278E-14, -1.499999999999990452, 6.178368504635963099 ) ) ;
#153 = AXIS2_PLACEMENT_3D ( 'NONE', #189, #88, #138 ) ;
#154 = APPROVAL_PERSON_ORGANIZATION ( #216, #142, #180 ) ;
#155 = ORIENTED_EDGE ( 'NONE', *, *, #15, .F. ) ;
#156 = DIRECTION ( 'NONE',  ( -4.319447003640437456E-31, -1.000000000000000000, -1.219242935835426903E-16 ) ) ;
#157 = COORDINATED_UNIVERSAL_TIME_OFFSET ( 1, 0, .AHEAD. ) ;
#158 = FACE_OUTER_BOUND ( 'NONE', #25, .T. ) ;
#159 = APPROVAL_STATUS ( 'not_yet_approved' ) ;
#160 = PERSON_AND_ORGANIZATION_ROLE ( 'creator' ) ;
#161 = APPROVAL_STATUS ( 'not_yet_approved' ) ;
#162 = PERSON_AND_ORGANIZATION ( #240, #105 ) ;
#163 = CC_DESIGN_APPROVAL ( #34, ( #149 ) ) ;
#164 = DIRECTION ( 'NONE',  ( 3.491481338843133355E-15, -1.219242935835426903E-16, 1.000000000000000000 ) ) ;
#165 = PRODUCT_DEFINITION_SHAPE ( 'NONE', 'NONE',  #96 ) ;
#166 = DIRECTION ( 'NONE',  ( 0.0000000000000000000, -1.000000000000000000, 0.0000000000000000000 ) ) ;
#167 = ADVANCED_FACE ( 'NONE', ( #158 ), #33, .F. ) ;
#168 = EDGE_LOOP ( 'NONE', ( #231 ) ) ;
#169 = DIRECTION ( 'NONE',  ( -4.256963957985708889E-31, -1.000000000000000000, -1.219242935835426903E-16 ) ) ;
#170 = EDGE_LOOP ( 'NONE', ( #135 ) ) ;
#171 = CLOSED_SHELL ( 'NONE', ( #183, #221, #122, #83, #115, #82 ) ) ;
#172 = CARTESIAN_POINT ( 'NONE',  ( 3.460204408867415374E-14, -1.208320873757286432E-15, 9.910419312204940212 ) ) ;
#173 = CYLINDRICAL_SURFACE ( 'NONE', #38, 0.2500000000000000000 ) ;
#174 = CARTESIAN_POINT ( 'NONE',  ( 0.0000000000000000000, 0.0000000000000000000, 0.0000000000000000000 ) ) ;
#175 = ADVANCED_BREP_SHAPE_REPRESENTATION ( '966120', ( #50, #133, #75 ), #230 ) ;
#176 = CARTESIAN_POINT ( 'NONE',  ( 0.0000000000000000000, 0.0000000000000000000, 0.0000000000000000000 ) ) ;
#177 = PERSON_AND_ORGANIZATION_ROLE ( 'design_owner' ) ;
#178 = AXIS2_PLACEMENT_3D ( 'NONE', #59, #23, #166 ) ;
#179 = AXIS2_PLACEMENT_3D ( 'NONE', #1, #206, #156 ) ;
#180 = APPROVAL_ROLE ( '' ) ;
#181 =( NAMED_UNIT ( * ) SI_UNIT ( $, .STERADIAN. ) SOLID_ANGLE_UNIT ( ) );
#182 = CC_DESIGN_SECURITY_CLASSIFICATION ( #149, ( #118 ) ) ;
#183 = ADVANCED_FACE ( 'NONE', ( #117, #224 ), #53, .T. ) ;
#184 = FACE_BOUND ( 'NONE', #35, .T. ) ;
#185 = TOROIDAL_SURFACE ( 'NONE', #179, 2.250000000000000444, 2.000000000000000000 ) ;
#186 = AXIS2_PLACEMENT_3D ( 'NONE', #174, #9, #77 ) ;
#187 = EDGE_CURVE ( 'NONE', #228, #228, #44, .T. ) ;
#188 = DIRECTION ( 'NONE',  ( 3.491481338843133355E-15, -1.219242935835426903E-16, 1.000000000000000000 ) ) ;
#189 = CARTESIAN_POINT ( 'NONE',  ( 1.316288464743860707E-13, -4.616918432785519503E-15, 37.69999999999998153 ) ) ;
#190 = ORIENTED_EDGE ( 'NONE', *, *, #187, .F. ) ;
#191 = FACE_BOUND ( 'NONE', #89, .T. ) ;
#192 = CARTESIAN_POINT ( 'NONE',  ( -5.130057060786731703E-30, -0.2500000000000000000, -1.469306739152306047E-15 ) ) ;
#193 = EDGE_LOOP ( 'NONE', ( #58 ) ) ;
#194 = VERTEX_POINT ( 'NONE', #192 ) ;
#195 = DIRECTION ( 'NONE',  ( 0.0000000000000000000, 1.000000000000000000, 0.0000000000000000000 ) ) ;
#196 = CARTESIAN_POINT ( 'NONE',  ( 4.364351673553913539E-15, -0.2500000000000001110, 1.249999999999999112 ) ) ;
#197 = CONICAL_SURFACE ( 'NONE', #238, 1.199999999999992184, 0.7853981633974338461 ) ;
#198 = CARTESIAN_POINT ( 'NONE',  ( 4.364351673553913539E-15, -1.524053669794282642E-16, 1.249999999999999112 ) ) ;
#199 = APPROVAL ( #159, 'UNSPECIFIED' ) ;
#200 = CC_DESIGN_APPROVAL ( #199, ( #96 ) ) ;
#201 = COORDINATED_UNIVERSAL_TIME_OFFSET ( 1, 0, .AHEAD. ) ;
#202 = APPROVAL_PERSON_ORGANIZATION ( #64, #199, #100 ) ;
#203 = PERSON_AND_ORGANIZATION ( #240, #105 ) ;
#204 = CALENDAR_DATE ( 2021, 16, 11 ) ;
#205 = CIRCLE ( 'NONE', #95, 0.2500000000000000000 ) ;
#206 = DIRECTION ( 'NONE',  ( 3.491481338843133355E-15, -1.219242935835426903E-16, 1.000000000000000000 ) ) ;
#207 = FACE_OUTER_BOUND ( 'NONE', #113, .T. ) ;
#208 = CARTESIAN_POINT ( 'NONE',  ( 4.364351673553915905E-15, -1.807003620809179069E-16, 1.249999999999999778 ) ) ;
#209 = ORIENTED_EDGE ( 'NONE', *, *, #187, .T. ) ;
#210 = VERTEX_POINT ( 'NONE', #196 ) ;
#211 = AXIS2_PLACEMENT_3D ( 'NONE', #198, #188, #128 ) ;
#212 = ORIENTED_EDGE ( 'NONE', *, *, #239, .F. ) ;
#213 = CALENDAR_DATE ( 2021, 16, 11 ) ;
#214 = DIRECTION ( 'NONE',  ( -4.275831445896958607E-31, -1.000000000000000000, -1.224646799147353207E-16 ) ) ;
#215 = DESIGN_CONTEXT ( 'detailed design', #30, 'design' ) ;
#216 = PERSON_AND_ORGANIZATION ( #240, #105 ) ;
#217 = COORDINATED_UNIVERSAL_TIME_OFFSET ( 1, 0, .AHEAD. ) ;
#218 = PERSON_AND_ORGANIZATION ( #240, #105 ) ;
#219 = AXIS2_PLACEMENT_3D ( 'NONE', #129, #234, #70 ) ;
#220 = DIRECTION ( 'NONE',  ( 1.000000000000000000, 0.0000000000000000000, 0.0000000000000000000 ) ) ;
#221 = ADVANCED_FACE ( 'NONE', ( #62, #184 ), #197, .T. ) ;
#222 = AXIS2_PLACEMENT_3D ( 'NONE', #98, #51, #214 ) ;
#223 = DIRECTION ( 'NONE',  ( -3.491481338843133355E-15, 1.219242935835426903E-16, -1.000000000000000000 ) ) ;
#224 = FACE_OUTER_BOUND ( 'NONE', #168, .T. ) ;
#225 = FACE_OUTER_BOUND ( 'NONE', #18, .T. ) ;
#226 = CARTESIAN_POINT ( 'NONE',  ( 1.326762908760390170E-13, -4.653657836759941152E-15, 37.99999999999999289 ) ) ;
#227 = EDGE_LOOP ( 'NONE', ( #110 ) ) ;
#228 = VERTEX_POINT ( 'NONE', #24 ) ;
#229 = CONICAL_SURFACE ( 'NONE', #124, 2.499999999999991118, 0.2617993877991429685 ) ;
#230 =( GEOMETRIC_REPRESENTATION_CONTEXT ( 3 ) GLOBAL_UNCERTAINTY_ASSIGNED_CONTEXT ( ( #63 ) ) GLOBAL_UNIT_ASSIGNED_CONTEXT ( ( #26, #7, #181 ) ) REPRESENTATION_CONTEXT ( 'NONE', 'WORKASPACE' ) );
#231 = ORIENTED_EDGE ( 'NONE', *, *, #49, .F. ) ;
#232 = PLANE ( 'NONE',  #4 ) ;
#233 = CALENDAR_DATE ( 2021, 16, 11 ) ;
#234 = DIRECTION ( 'NONE',  ( 3.491481338843133355E-15, -1.219242935835426903E-16, 1.000000000000000000 ) ) ;
#235 = APPLICATION_PROTOCOL_DEFINITION ( 'international standard', 'config_control_design', 1994, #30 ) ;
#236 = CIRCLE ( 'NONE', #178, 0.3181483474218604890 ) ;
#237 = APPROVAL_STATUS ( 'not_yet_approved' ) ;
#238 = AXIS2_PLACEMENT_3D ( 'NONE', #16, #90, #147 ) ;
#239 = EDGE_CURVE ( 'NONE', #194, #194, #205, .T. ) ;
#240 = PERSON ( 'UNSPECIFIED', 'UNSPECIFIED', 'UNSPECIFIED', ('UNSPECIFIED'), ('UNSPECIFIED'), ('UNSPECIFIED') ) ;
#241 = LOCAL_TIME ( 16, 44, 59.00000000000000000, #126 ) ;
#242 = CC_DESIGN_PERSON_AND_ORGANIZATION_ASSIGNMENT ( #125, #143, ( #118 ) ) ;
#243 = DIRECTION ( 'NONE',  ( -4.256963957985712392E-31, -1.000000000000000000, -1.219242935835429368E-16 ) ) ;
ENDSEC;
END-ISO-10303-21;
