ISO-10303-21;
HEADER;
FILE_DESCRIPTION (( 'STEP AP203' ),
    '1' );
FILE_NAME ('966119.step',
    '2021-11-16T15:44:58',
    ( '' ),
    ( '' ),
    'SwSTEP 2.0',
    'SolidWorks 2019',
    '' );
FILE_SCHEMA (( 'CONFIG_CONTROL_DESIGN' ));
ENDSEC;

DATA;
#1 = DIRECTION ( 'NONE',  ( 0.0000000000000000000, -1.000000000000000000, 0.0000000000000000000 ) ) ;
#2 = DIRECTION ( 'NONE',  ( 3.491481338843133355E-15, -1.219242935835426903E-16, 1.000000000000000000 ) ) ;
#3 = AXIS2_PLACEMENT_3D ( 'NONE', #33, #163, #102 ) ;
#4 = VERTEX_POINT ( 'NONE', #124 ) ;
#5 = DATE_AND_TIME ( #20, #106 ) ;
#6 = CARTESIAN_POINT ( 'NONE',  ( -5.108772240996802927E-30, -0.2249999999999999500, -1.463210524473128745E-15 ) ) ;
#7 = VERTEX_POINT ( 'NONE', #164 ) ;
#8 = CIRCLE ( 'NONE', #30, 1.499999999999992006 ) ;
#9 = ORIENTED_EDGE ( 'NONE', *, *, #108, .F. ) ;
#10 = CLOSED_SHELL ( 'NONE', ( #61, #197, #160 ) ) ;
#11 = FACE_OUTER_BOUND ( 'NONE', #45, .T. ) ;
#12 = CARTESIAN_POINT ( 'NONE',  ( 1.316288464743860707E-13, -4.616918432785519503E-15, 37.69999999999998153 ) ) ;
#13 = DIRECTION ( 'NONE',  ( -3.491481338843133355E-15, 1.224646799147353207E-16, -1.000000000000000000 ) ) ;
#14 = EDGE_CURVE ( 'NONE', #7, #7, #173, .T. ) ;
#15 = DIRECTION ( 'NONE',  ( -3.491481338843133355E-15, 1.224646799147353207E-16, -1.000000000000000000 ) ) ;
#16 = DIRECTION ( 'NONE',  ( -3.491481338843133355E-15, 1.219242935835426903E-16, -1.000000000000000000 ) ) ;
#17 = APPROVAL ( #21, 'UNSPECIFIED' ) ;
#18 = FACE_BOUND ( 'NONE', #112, .T. ) ;
#19 = PRODUCT_DEFINITION_SHAPE ( 'NONE', 'NONE',  #243 ) ;
#20 = CALENDAR_DATE ( 2021, 16, 11 ) ;
#21 = APPROVAL_STATUS ( 'not_yet_approved' ) ;
#22 = CARTESIAN_POINT ( 'NONE',  ( 0.0000000000000000000, 0.0000000000000000000, 0.0000000000000000000 ) ) ;
#23 = COORDINATED_UNIVERSAL_TIME_OFFSET ( 1, 0, .AHEAD. ) ;
#24 = CC_DESIGN_APPROVAL ( #17, ( #202 ) ) ;
#25 = COORDINATED_UNIVERSAL_TIME_OFFSET ( 1, 0, .AHEAD. ) ;
#26 = ORIENTED_EDGE ( 'NONE', *, *, #182, .T. ) ;
#27 = AXIS2_PLACEMENT_3D ( 'NONE', #118, #51, #1 ) ;
#28 = ORIENTED_EDGE ( 'NONE', *, *, #128, .T. ) ;
#29 = FACE_OUTER_BOUND ( 'NONE', #236, .T. ) ;
#30 = AXIS2_PLACEMENT_3D ( 'NONE', #12, #222, #35 ) ;
#31 = CARTESIAN_POINT ( 'NONE',  ( 0.0000000000000000000, 0.0000000000000000000, 0.0000000000000000000 ) ) ;
#32 = CC_DESIGN_PERSON_AND_ORGANIZATION_ASSIGNMENT ( #152, #83, ( #202 ) ) ;
#33 = CARTESIAN_POINT ( 'NONE',  ( 3.440408153160372824E-14, -1.201407921178023652E-15, 9.853720582394167593 ) ) ;
#34 = CARTESIAN_POINT ( 'NONE',  ( 3.840629472727446691E-15, -1.590163186312077443E-16, 1.099999999999999867 ) ) ;
#35 = DIRECTION ( 'NONE',  ( 0.0000000000000000000, 1.000000000000000000, 0.0000000000000000000 ) ) ;
#36 = ADVANCED_FACE ( 'NONE', ( #122, #200 ), #206, .T. ) ;
#37 =( LENGTH_UNIT ( ) NAMED_UNIT ( * ) SI_UNIT ( .MILLI., .METRE. ) );
#38 = CARTESIAN_POINT ( 'NONE',  ( 1.326762908760390170E-13, -4.653657836759941152E-15, 37.99999999999999289 ) ) ;
#39 = DATE_TIME_ROLE ( 'creation_date' ) ;
#40 = CC_DESIGN_PERSON_AND_ORGANIZATION_ASSIGNMENT ( #114, #196, ( #139 ) ) ;
#41 = CARTESIAN_POINT ( 'NONE',  ( 3.840629472727444324E-15, -0.2250000000000001998, 1.099999999999999201 ) ) ;
#42 = APPLICATION_PROTOCOL_DEFINITION ( 'international standard', 'config_control_design', 1994, #170 ) ;
#43 = MANIFOLD_SOLID_BREP ( 'Corps-Déplacer/Copier1[2]', #10 ) ;
#44 = ORIENTED_EDGE ( 'NONE', *, *, #113, .T. ) ;
#45 = EDGE_LOOP ( 'NONE', ( #82 ) ) ;
#46 = DATE_TIME_ROLE ( 'classification_date' ) ;
#47 = TOROIDAL_SURFACE ( 'NONE', #237, 2.225000000000000089, 2.000000000000000000 ) ;
#48 = DATE_AND_TIME ( #217, #241 ) ;
#49 = EDGE_LOOP ( 'NONE', ( #44 ) ) ;
#50 = DIRECTION ( 'NONE',  ( 0.0000000000000000000, -1.000000000000000000, 0.0000000000000000000 ) ) ;
#51 = DIRECTION ( 'NONE',  ( 3.491481338843133355E-15, -1.219242935835426903E-16, 1.000000000000000000 ) ) ;
#52 = FACE_OUTER_BOUND ( 'NONE', #175, .T. ) ;
#53 = CARTESIAN_POINT ( 'NONE',  ( 3.840629472727446691E-15, -1.590163186312077443E-16, 1.099999999999999867 ) ) ;
#54 = CC_DESIGN_DATE_AND_TIME_ASSIGNMENT ( #210, #39, ( #243 ) ) ;
#55 = CIRCLE ( 'NONE', #99, 1.199999999999992184 ) ;
#56 =( NAMED_UNIT ( * ) PLANE_ANGLE_UNIT ( ) SI_UNIT ( $, .RADIAN. ) );
#57 = CALENDAR_DATE ( 2021, 16, 11 ) ;
#58 = ADVANCED_FACE ( 'NONE', ( #104, #105 ), #47, .F. ) ;
#59 = DIRECTION ( 'NONE',  ( -3.491481338843133355E-15, 1.224646799147353207E-16, -1.000000000000000000 ) ) ;
#60 = APPLICATION_PROTOCOL_DEFINITION ( 'international standard', 'config_control_design', 1994, #191 ) ;
#61 = ADVANCED_FACE ( 'NONE', ( #11 ), #66, .T. ) ;
#62 = UNCERTAINTY_MEASURE_WITH_UNIT (LENGTH_MEASURE( 1.000000000000000082E-05 ), #37, 'distance_accuracy_value', 'NONE');
#63 = AXIS2_PLACEMENT_3D ( 'NONE', #242, #223, #142 ) ;
#64 = CALENDAR_DATE ( 2021, 16, 11 ) ;
#65 = EDGE_LOOP ( 'NONE', ( #28 ) ) ;
#66 = PLANE ( 'NONE',  #143 ) ;
#67 = DIRECTION ( 'NONE',  ( 3.491481338843133355E-15, -1.224646799147353207E-16, 1.000000000000000000 ) ) ;
#68 = AXIS2_PLACEMENT_3D ( 'NONE', #81, #183, #240 ) ;
#69 =( GEOMETRIC_REPRESENTATION_CONTEXT ( 3 ) GLOBAL_UNCERTAINTY_ASSIGNED_CONTEXT ( ( #62 ) ) GLOBAL_UNIT_ASSIGNED_CONTEXT ( ( #37, #56, #171 ) ) REPRESENTATION_CONTEXT ( 'NONE', 'WORKASPACE' ) );
#70 = PLANE ( 'NONE',  #87 ) ;
#71 = DIRECTION ( 'NONE',  ( 0.0000000000000000000, -1.000000000000000000, 0.0000000000000000000 ) ) ;
#72 = FACE_OUTER_BOUND ( 'NONE', #234, .T. ) ;
#73 = CLOSED_SHELL ( 'NONE', ( #36, #232, #201, #168, #58, #220 ) ) ;
#74 = PERSON_AND_ORGANIZATION ( #189, #227 ) ;
#75 = APPROVAL ( #135, 'UNSPECIFIED' ) ;
#76 = DIRECTION ( 'NONE',  ( -4.275831445896958607E-31, -1.000000000000000000, -1.224646799147353207E-16 ) ) ;
#77 = VERTEX_POINT ( 'NONE', #186 ) ;
#78 = EDGE_CURVE ( 'NONE', #4, #4, #110, .T. ) ;
#79 = DIRECTION ( 'NONE',  ( 1.000000000000000000, 0.0000000000000000000, 0.0000000000000000000 ) ) ;
#80 = APPROVAL_DATE_TIME ( #233, #75 ) ;
#81 = CARTESIAN_POINT ( 'NONE',  ( 5.647953204952700705E-15, -1.972293814220791745E-16, 1.617638090205028245 ) ) ;
#82 = ORIENTED_EDGE ( 'NONE', *, *, #78, .T. ) ;
#83 = PERSON_AND_ORGANIZATION_ROLE ( 'creator' ) ;
#84 = DIRECTION ( 'NONE',  ( 3.491481338843133355E-15, -1.224646799147353207E-16, 1.000000000000000000 ) ) ;
#85 = FACE_OUTER_BOUND ( 'NONE', #219, .T. ) ;
#86 = DIRECTION ( 'NONE',  ( -4.275831445896958607E-31, -1.000000000000000000, -1.224646799147353207E-16 ) ) ;
#87 = AXIS2_PLACEMENT_3D ( 'NONE', #162, #141, #86 ) ;
#88 = CC_DESIGN_PERSON_AND_ORGANIZATION_ASSIGNMENT ( #94, #213, ( #209 ) ) ;
#89 = DIRECTION ( 'NONE',  ( 0.0000000000000000000, 1.000000000000000000, 0.0000000000000000000 ) ) ;
#90 = DIRECTION ( 'NONE',  ( 3.491481338843133355E-15, -1.219242935835426903E-16, 1.000000000000000000 ) ) ;
#91 = FACE_OUTER_BOUND ( 'NONE', #218, .T. ) ;
#92 = CC_DESIGN_PERSON_AND_ORGANIZATION_ASSIGNMENT ( #74, #146, ( #243 ) ) ;
#93 = APPROVAL_ROLE ( '' ) ;
#94 = PERSON_AND_ORGANIZATION ( #189, #227 ) ;
#95 = AXIS2_PLACEMENT_3D ( 'NONE', #31, #13, #221 ) ;
#96 = VERTEX_POINT ( 'NONE', #226 ) ;
#97 = EDGE_LOOP ( 'NONE', ( #153 ) ) ;
#98 = APPROVAL_DATE_TIME ( #155, #17 ) ;
#99 = AXIS2_PLACEMENT_3D ( 'NONE', #159, #15, #89 ) ;
#100 = PLANE ( 'NONE',  #177 ) ;
#101 = APPROVAL_PERSON_ORGANIZATION ( #107, #17, #93 ) ;
#102 = DIRECTION ( 'NONE',  ( 0.0000000000000000000, -1.000000000000000000, 0.0000000000000000000 ) ) ;
#103 = DIRECTION ( 'NONE',  ( 3.491481338843133355E-15, -1.219242935835426903E-16, 1.000000000000000000 ) ) ;
#104 = FACE_OUTER_BOUND ( 'NONE', #65, .T. ) ;
#105 = FACE_OUTER_BOUND ( 'NONE', #97, .T. ) ;
#106 = LOCAL_TIME ( 16, 44, 58.00000000000000000, #23 ) ;
#107 = PERSON_AND_ORGANIZATION ( #189, #227 ) ;
#108 = EDGE_CURVE ( 'NONE', #169, #169, #130, .T. ) ;
#109 = VERTEX_POINT ( 'NONE', #212 ) ;
#110 = CIRCLE ( 'NONE', #165, 0.2250000000000000888 ) ;
#111 = EDGE_LOOP ( 'NONE', ( #26 ) ) ;
#112 = EDGE_LOOP ( 'NONE', ( #172 ) ) ;
#113 = EDGE_CURVE ( 'NONE', #96, #96, #214, .T. ) ;
#114 = PERSON_AND_ORGANIZATION ( #189, #227 ) ;
#115 = APPROVAL_ROLE ( '' ) ;
#116 = ORIENTED_EDGE ( 'NONE', *, *, #108, .T. ) ;
#117 = EDGE_LOOP ( 'NONE', ( #193 ) ) ;
#118 = CARTESIAN_POINT ( 'NONE',  ( 3.840629472727444324E-15, -1.341167229418968508E-16, 1.099999999999999201 ) ) ;
#119 = FACE_BOUND ( 'NONE', #192, .T. ) ;
#120 = AXIS2_PLACEMENT_3D ( 'NONE', #22, #187, #79 ) ;
#121 = CARTESIAN_POINT ( 'NONE',  ( -5.012990551942124834E-30, 1.750561645530759130E-31, -1.435777558416831576E-15 ) ) ;
#122 = FACE_OUTER_BOUND ( 'NONE', #111, .T. ) ;
#123 = APPROVAL_PERSON_ORGANIZATION ( #184, #205, #188 ) ;
#124 = CARTESIAN_POINT ( 'NONE',  ( 3.840629472727444324E-15, -0.2250000000000001998, 1.099999999999999201 ) ) ;
#125 = EDGE_CURVE ( 'NONE', #77, #77, #55, .T. ) ;
#126 = APPROVAL_DATE_TIME ( #5, #205 ) ;
#127 = CONICAL_SURFACE ( 'NONE', #3, 2.499999999999991118, 0.2617993877991429130 ) ;
#128 = EDGE_CURVE ( 'NONE', #147, #147, #157, .T. ) ;
#129 = APPROVAL_STATUS ( 'not_yet_approved' ) ;
#130 = CIRCLE ( 'NONE', #176, 0.2249999999999999500 ) ;
#131 = AXIS2_PLACEMENT_3D ( 'NONE', #38, #59, #145 ) ;
#132 = ORIENTED_EDGE ( 'NONE', *, *, #125, .F. ) ;
#133 = CC_DESIGN_APPROVAL ( #205, ( #243 ) ) ;
#134 = CC_DESIGN_PERSON_AND_ORGANIZATION_ASSIGNMENT ( #199, #148, ( #202 ) ) ;
#135 = APPROVAL_STATUS ( 'not_yet_approved' ) ;
#136 = ORIENTED_EDGE ( 'NONE', *, *, #182, .F. ) ;
#137 = CARTESIAN_POINT ( 'NONE',  ( 3.840629472727444324E-15, -1.341167229418968508E-16, 1.099999999999999201 ) ) ;
#138 = CYLINDRICAL_SURFACE ( 'NONE', #166, 0.2250000000000000056 ) ;
#139 = SECURITY_CLASSIFICATION ( '', '', #229 ) ;
#140 = CARTESIAN_POINT ( 'NONE',  ( 3.840629472727444324E-15, 0.0000000000000000000, 1.099999999999999201 ) ) ;
#141 = DIRECTION ( 'NONE',  ( 3.491481338843133355E-15, -1.224646799147353207E-16, 1.000000000000000000 ) ) ;
#142 = DIRECTION ( 'NONE',  ( 4.275831445896958607E-31, 1.000000000000000000, 1.224646799147353207E-16 ) ) ;
#143 = AXIS2_PLACEMENT_3D ( 'NONE', #34, #67, #208 ) ;
#144 = CC_DESIGN_APPROVAL ( #75, ( #139 ) ) ;
#145 = DIRECTION ( 'NONE',  ( 0.0000000000000000000, 1.000000000000000000, 0.0000000000000000000 ) ) ;
#146 = PERSON_AND_ORGANIZATION_ROLE ( 'creator' ) ;
#147 = VERTEX_POINT ( 'NONE', #41 ) ;
#148 = PERSON_AND_ORGANIZATION_ROLE ( 'design_supplier' ) ;
#149 = SHAPE_DEFINITION_REPRESENTATION ( #19, #216 ) ;
#150 = ORIENTED_EDGE ( 'NONE', *, *, #14, .T. ) ;
#151 = LOCAL_TIME ( 16, 44, 58.00000000000000000, #225 ) ;
#152 = PERSON_AND_ORGANIZATION ( #189, #227 ) ;
#153 = ORIENTED_EDGE ( 'NONE', *, *, #14, .F. ) ;
#154 = ORIENTED_EDGE ( 'NONE', *, *, #128, .F. ) ;
#155 = DATE_AND_TIME ( #64, #174 ) ;
#156 = AXIS2_PLACEMENT_3D ( 'NONE', #178, #16, #71 ) ;
#157 = CIRCLE ( 'NONE', #27, 0.2250000000000000888 ) ;
#158 = ORIENTED_EDGE ( 'NONE', *, *, #78, .F. ) ;
#159 = CARTESIAN_POINT ( 'NONE',  ( 1.326762908760390170E-13, -4.653657836759941152E-15, 37.99999999999999289 ) ) ;
#160 = ADVANCED_FACE ( 'NONE', ( #179 ), #70, .F. ) ;
#161 = PLANE ( 'NONE',  #63 ) ;
#162 = CARTESIAN_POINT ( 'NONE',  ( -2.137917073001454058E-30, 7.498803648657679327E-32, -6.123237862442165323E-16 ) ) ;
#163 = DIRECTION ( 'NONE',  ( 3.491481338843133355E-15, -1.219242935835426903E-16, 1.000000000000000000 ) ) ;
#164 = CARTESIAN_POINT ( 'NONE',  ( 5.647953204952700705E-15, -0.2931483474218604113, 1.617638090205028245 ) ) ;
#165 = AXIS2_PLACEMENT_3D ( 'NONE', #137, #224, #50 ) ;
#166 = AXIS2_PLACEMENT_3D ( 'NONE', #204, #90, #180 ) ;
#167 = COORDINATED_UNIVERSAL_TIME_OFFSET ( 1, 0, .AHEAD. ) ;
#168 = ADVANCED_FACE ( 'NONE', ( #119, #203 ), #127, .T. ) ;
#169 = VERTEX_POINT ( 'NONE', #6 ) ;
#170 = APPLICATION_CONTEXT ( 'configuration controlled 3d designs of mechanical parts and assemblies' ) ;
#171 =( NAMED_UNIT ( * ) SI_UNIT ( $, .STERADIAN. ) SOLID_ANGLE_UNIT ( ) );
#172 = ORIENTED_EDGE ( 'NONE', *, *, #125, .T. ) ;
#173 = CIRCLE ( 'NONE', #68, 0.2931483474218601892 ) ;
#174 = LOCAL_TIME ( 16, 44, 58.00000000000000000, #167 ) ;
#175 = EDGE_LOOP ( 'NONE', ( #116 ) ) ;
#176 = AXIS2_PLACEMENT_3D ( 'NONE', #121, #103, #181 ) ;
#177 = AXIS2_PLACEMENT_3D ( 'NONE', #53, #84, #76 ) ;
#178 = CARTESIAN_POINT ( 'NONE',  ( 2.137369578136219413E-14, -7.463802628472859196E-16, 6.121669774825188703 ) ) ;
#179 = FACE_OUTER_BOUND ( 'NONE', #198, .T. ) ;
#180 = DIRECTION ( 'NONE',  ( -4.256963957985708889E-31, -1.000000000000000000, -1.219242935835426656E-16 ) ) ;
#181 = DIRECTION ( 'NONE',  ( -4.256963957985710640E-31, -1.000000000000000000, -1.219242935835426903E-16 ) ) ;
#182 = EDGE_CURVE ( 'NONE', #109, #109, #8, .T. ) ;
#183 = DIRECTION ( 'NONE',  ( 3.491481338843133355E-15, -1.219242935835426903E-16, 1.000000000000000000 ) ) ;
#184 = PERSON_AND_ORGANIZATION ( #189, #227 ) ;
#185 = PRODUCT_RELATED_PRODUCT_CATEGORY ( 'detail', '', ( #209 ) ) ;
#186 = CARTESIAN_POINT ( 'NONE',  ( 1.326762908760390170E-13, 1.199999999999987521, 37.99999999999999289 ) ) ;
#187 = DIRECTION ( 'NONE',  ( 0.0000000000000000000, 0.0000000000000000000, 1.000000000000000000 ) ) ;
#188 = APPROVAL_ROLE ( '' ) ;
#189 = PERSON ( 'UNSPECIFIED', 'UNSPECIFIED', 'UNSPECIFIED', ('UNSPECIFIED'), ('UNSPECIFIED'), ('UNSPECIFIED') ) ;
#190 = LOCAL_TIME ( 16, 44, 58.00000000000000000, #25 ) ;
#191 = APPLICATION_CONTEXT ( 'configuration controlled 3d designs of mechanical parts and assemblies' ) ;
#192 = EDGE_LOOP ( 'NONE', ( #150 ) ) ;
#193 = ORIENTED_EDGE ( 'NONE', *, *, #113, .F. ) ;
#194 = DESIGN_CONTEXT ( 'detailed design', #191, 'design' ) ;
#195 = CALENDAR_DATE ( 2021, 16, 11 ) ;
#196 = PERSON_AND_ORGANIZATION_ROLE ( 'classification_officer' ) ;
#197 = ADVANCED_FACE ( 'NONE', ( #52, #85 ), #138, .T. ) ;
#198 = EDGE_LOOP ( 'NONE', ( #9 ) ) ;
#199 = PERSON_AND_ORGANIZATION ( #189, #227 ) ;
#200 = FACE_OUTER_BOUND ( 'NONE', #117, .T. ) ;
#201 = ADVANCED_FACE ( 'NONE', ( #72 ), #161, .F. ) ;
#202 = PRODUCT_DEFINITION_FORMATION_WITH_SPECIFIED_SOURCE ( 'ANY', '', #209, .NOT_KNOWN. ) ;
#203 = FACE_OUTER_BOUND ( 'NONE', #49, .T. ) ;
#204 = CARTESIAN_POINT ( 'NONE',  ( 0.0000000000000000000, 0.0000000000000000000, 0.0000000000000000000 ) ) ;
#205 = APPROVAL ( #129, 'UNSPECIFIED' ) ;
#206 = CYLINDRICAL_SURFACE ( 'NONE', #95, 1.499999999999989786 ) ;
#207 = APPROVAL_PERSON_ORGANIZATION ( #231, #75, #115 ) ;
#208 = DIRECTION ( 'NONE',  ( -4.275831445896958607E-31, -1.000000000000000000, -1.224646799147353207E-16 ) ) ;
#209 = PRODUCT ( '966119', '966119', '', ( #228 ) ) ;
#210 = DATE_AND_TIME ( #57, #151 ) ;
#211 = MANIFOLD_SOLID_BREP ( 'Corps-Déplacer/Copier1[1]', #73 ) ;
#212 = CARTESIAN_POINT ( 'NONE',  ( 1.316288464743860707E-13, 1.499999999999987566, 37.69999999999998153 ) ) ;
#213 = PERSON_AND_ORGANIZATION_ROLE ( 'design_owner' ) ;
#214 = CIRCLE ( 'NONE', #156, 1.499999999999989786 ) ;
#215 = CONICAL_SURFACE ( 'NONE', #131, 1.199999999999992184, 0.7853981633974338461 ) ;
#216 = ADVANCED_BREP_SHAPE_REPRESENTATION ( '966119', ( #211, #43, #120 ), #69 ) ;
#217 = CALENDAR_DATE ( 2021, 16, 11 ) ;
#218 = EDGE_LOOP ( 'NONE', ( #136 ) ) ;
#219 = EDGE_LOOP ( 'NONE', ( #158 ) ) ;
#220 = ADVANCED_FACE ( 'NONE', ( #29 ), #100, .F. ) ;
#221 = DIRECTION ( 'NONE',  ( 4.275831445896959482E-31, 1.000000000000000000, 1.224646799147353207E-16 ) ) ;
#222 = DIRECTION ( 'NONE',  ( -3.491481338843133355E-15, 1.224646799147353207E-16, -1.000000000000000000 ) ) ;
#223 = DIRECTION ( 'NONE',  ( -3.491481338843133355E-15, 1.224646799147353207E-16, -1.000000000000000000 ) ) ;
#224 = DIRECTION ( 'NONE',  ( 3.491481338843133355E-15, -1.219242935835426903E-16, 1.000000000000000000 ) ) ;
#225 = COORDINATED_UNIVERSAL_TIME_OFFSET ( 1, 0, .AHEAD. ) ;
#226 = CARTESIAN_POINT ( 'NONE',  ( 2.137369578136219413E-14, -1.499999999999990452, 6.121669774825188703 ) ) ;
#227 = ORGANIZATION ( 'UNSPECIFIED', 'UNSPECIFIED', '' ) ;
#228 = MECHANICAL_CONTEXT ( 'NONE', #170, 'mechanical' ) ;
#229 = SECURITY_CLASSIFICATION_LEVEL ( 'unclassified' ) ;
#230 = CC_DESIGN_SECURITY_CLASSIFICATION ( #139, ( #202 ) ) ;
#231 = PERSON_AND_ORGANIZATION ( #189, #227 ) ;
#232 = ADVANCED_FACE ( 'NONE', ( #91, #18 ), #215, .T. ) ;
#233 = DATE_AND_TIME ( #195, #190 ) ;
#234 = EDGE_LOOP ( 'NONE', ( #132 ) ) ;
#235 = COORDINATED_UNIVERSAL_TIME_OFFSET ( 1, 0, .AHEAD. ) ;
#236 = EDGE_LOOP ( 'NONE', ( #154 ) ) ;
#237 = AXIS2_PLACEMENT_3D ( 'NONE', #140, #2, #239 ) ;
#238 = CC_DESIGN_DATE_AND_TIME_ASSIGNMENT ( #48, #46, ( #139 ) ) ;
#239 = DIRECTION ( 'NONE',  ( -4.319816725804075743E-31, -1.000000000000000000, -1.219242935835426903E-16 ) ) ;
#240 = DIRECTION ( 'NONE',  ( 0.0000000000000000000, -1.000000000000000000, 0.0000000000000000000 ) ) ;
#241 = LOCAL_TIME ( 16, 44, 58.00000000000000000, #235 ) ;
#242 = CARTESIAN_POINT ( 'NONE',  ( 1.326762908760390170E-13, 8.998558695971017012E-33, 37.99999999999999289 ) ) ;
#243 = PRODUCT_DEFINITION ( 'UNKNOWN', '', #202, #194 ) ;
ENDSEC;
END-ISO-10303-21;
