ISO-10303-21;
HEADER;
FILE_DESCRIPTION (( 'STEP AP203' ),
    '1' );
FILE_NAME ('966118.step',
    '2021-11-16T15:44:58',
    ( '' ),
    ( '' ),
    'SwSTEP 2.0',
    'SolidWorks 2019',
    '' );
FILE_SCHEMA (( 'CONFIG_CONTROL_DESIGN' ));
ENDSEC;

DATA;
#1 = EDGE_CURVE ( 'NONE', #74, #74, #16, .T. ) ;
#2 = DATE_AND_TIME ( #200, #169 ) ;
#3 = CARTESIAN_POINT ( 'NONE',  ( 2.135030729123391583E-14, -1.499999999999990452, 6.114971045014412354 ) ) ;
#4 =( GEOMETRIC_REPRESENTATION_CONTEXT ( 3 ) GLOBAL_UNCERTAINTY_ASSIGNED_CONTEXT ( ( #8 ) ) GLOBAL_UNIT_ASSIGNED_CONTEXT ( ( #137, #36, #35 ) ) REPRESENTATION_CONTEXT ( 'NONE', 'WORKASPACE' ) );
#5 = CARTESIAN_POINT ( 'NONE',  ( 2.135030729123391583E-14, -7.455635249472000470E-16, 6.114971045014412354 ) ) ;
#6 = CALENDAR_DATE ( 2021, 16, 11 ) ;
#7 = CC_DESIGN_SECURITY_CLASSIFICATION ( #157, ( #140 ) ) ;
#8 = UNCERTAINTY_MEASURE_WITH_UNIT (LENGTH_MEASURE( 1.000000000000000082E-05 ), #137, 'distance_accuracy_value', 'NONE');
#9 = ORIENTED_EDGE ( 'NONE', *, *, #95, .F. ) ;
#10 = FACE_OUTER_BOUND ( 'NONE', #241, .T. ) ;
#11 = ORIENTED_EDGE ( 'NONE', *, *, #95, .T. ) ;
#12 = CARTESIAN_POINT ( 'NONE',  ( 0.0000000000000000000, 0.0000000000000000000, 0.0000000000000000000 ) ) ;
#13 = DIRECTION ( 'NONE',  ( 3.491481338843133355E-15, -1.219242935835426903E-16, 1.000000000000000000 ) ) ;
#14 = DIRECTION ( 'NONE',  ( 3.491481338843133355E-15, -1.219242935835426903E-16, 1.000000000000000000 ) ) ;
#15 = DIRECTION ( 'NONE',  ( 0.0000000000000000000, 1.000000000000000000, 0.0000000000000000000 ) ) ;
#16 = CIRCLE ( 'NONE', #228, 1.199999999999992184 ) ;
#17 = CC_DESIGN_APPROVAL ( #92, ( #157 ) ) ;
#18 = CC_DESIGN_PERSON_AND_ORGANIZATION_ASSIGNMENT ( #226, #134, ( #118 ) ) ;
#19 = CARTESIAN_POINT ( 'NONE',  ( 1.326762908760390170E-13, 1.199999999999987521, 37.99999999999999289 ) ) ;
#20 = LOCAL_TIME ( 16, 44, 58.00000000000000000, #94 ) ;
#21 = COORDINATED_UNIVERSAL_TIME_OFFSET ( 1, 0, .AHEAD. ) ;
#22 = COORDINATED_UNIVERSAL_TIME_OFFSET ( 1, 0, .AHEAD. ) ;
#23 = EDGE_LOOP ( 'NONE', ( #162 ) ) ;
#24 = ORIENTED_EDGE ( 'NONE', *, *, #203, .F. ) ;
#25 = CC_DESIGN_APPROVAL ( #215, ( #212 ) ) ;
#26 = CARTESIAN_POINT ( 'NONE',  ( -5.002348142047160445E-30, 1.746845262189297572E-31, -1.432729451077243023E-15 ) ) ;
#27 = ORIENTED_EDGE ( 'NONE', *, *, #1, .T. ) ;
#28 = CARTESIAN_POINT ( 'NONE',  ( 0.0000000000000000000, 0.0000000000000000000, 0.0000000000000000000 ) ) ;
#29 = DIRECTION ( 'NONE',  ( 3.491481338843133355E-15, -1.219242935835426903E-16, 1.000000000000000000 ) ) ;
#30 = AXIS2_PLACEMENT_3D ( 'NONE', #145, #13, #46 ) ;
#31 = DIRECTION ( 'NONE',  ( -4.256963957985708889E-31, -1.000000000000000000, -1.219242935835426903E-16 ) ) ;
#32 = PLANE ( 'NONE',  #220 ) ;
#33 = CARTESIAN_POINT ( 'NONE',  ( 0.0000000000000000000, 0.0000000000000000000, 0.0000000000000000000 ) ) ;
#34 = CARTESIAN_POINT ( 'NONE',  ( 1.316288464743860707E-13, 1.499999999999987566, 37.69999999999998153 ) ) ;
#35 =( NAMED_UNIT ( * ) SI_UNIT ( $, .STERADIAN. ) SOLID_ANGLE_UNIT ( ) );
#36 =( NAMED_UNIT ( * ) PLANE_ANGLE_UNIT ( ) SI_UNIT ( $, .RADIAN. ) );
#37 = ADVANCED_FACE ( 'NONE', ( #183, #10 ), #196, .T. ) ;
#38 = DIRECTION ( 'NONE',  ( -4.256963957985703634E-31, -1.000000000000000000, -1.219242935835422958E-16 ) ) ;
#39 = AXIS2_PLACEMENT_3D ( 'NONE', #197, #181, #43 ) ;
#40 = SHAPE_DEFINITION_REPRESENTATION ( #209, #225 ) ;
#41 = PERSON_AND_ORGANIZATION_ROLE ( 'classification_officer' ) ;
#42 = EDGE_LOOP ( 'NONE', ( #217 ) ) ;
#43 = DIRECTION ( 'NONE',  ( -4.275831445896958607E-31, -1.000000000000000000, -1.224646799147353207E-16 ) ) ;
#44 = AXIS2_PLACEMENT_3D ( 'NONE', #216, #178, #88 ) ;
#45 = MANIFOLD_SOLID_BREP ( 'Corps-Déplacer/Copier1[2]', #237 ) ;
#46 = DIRECTION ( 'NONE',  ( 0.0000000000000000000, -1.000000000000000000, 0.0000000000000000000 ) ) ;
#47 = FACE_BOUND ( 'NONE', #127, .T. ) ;
#48 = CARTESIAN_POINT ( 'NONE',  ( 3.491481338843130989E-15, 0.0000000000000000000, 0.9999999999999993339 ) ) ;
#49 = CONICAL_SURFACE ( 'NONE', #182, 1.199999999999992184, 0.7853981633974338461 ) ;
#50 = DIRECTION ( 'NONE',  ( 3.491481338843133355E-15, -1.224646799147353207E-16, 1.000000000000000000 ) ) ;
#51 = DATE_TIME_ROLE ( 'creation_date' ) ;
#52 = APPROVAL_STATUS ( 'not_yet_approved' ) ;
#53 = PERSON_AND_ORGANIZATION ( #122, #234 ) ;
#54 = VERTEX_POINT ( 'NONE', #34 ) ;
#55 = ADVANCED_FACE ( 'NONE', ( #47, #101 ), #206, .T. ) ;
#56 = APPROVAL_ROLE ( '' ) ;
#57 = ADVANCED_FACE ( 'NONE', ( #219, #184 ), #81, .T. ) ;
#58 = DATE_AND_TIME ( #117, #123 ) ;
#59 = ADVANCED_FACE ( 'NONE', ( #90, #166 ), #165, .F. ) ;
#60 = CARTESIAN_POINT ( 'NONE',  ( 3.491481338843130989E-15, -1.219242935835426163E-16, 0.9999999999999993339 ) ) ;
#61 = ORIENTED_EDGE ( 'NONE', *, *, #161, .F. ) ;
#62 = DIRECTION ( 'NONE',  ( 3.491481338843133355E-15, -1.224646799147353207E-16, 1.000000000000000000 ) ) ;
#63 = EDGE_LOOP ( 'NONE', ( #78 ) ) ;
#64 = FACE_OUTER_BOUND ( 'NONE', #23, .T. ) ;
#65 = EDGE_LOOP ( 'NONE', ( #124 ) ) ;
#66 = CARTESIAN_POINT ( 'NONE',  ( 3.491481338843133355E-15, -1.445602896647343354E-16, 1.000000000000000000 ) ) ;
#67 = APPLICATION_CONTEXT ( 'configuration controlled 3d designs of mechanical parts and assemblies' ) ;
#68 = PLANE ( 'NONE',  #69 ) ;
#69 = AXIS2_PLACEMENT_3D ( 'NONE', #107, #198, #240 ) ;
#70 = PERSON_AND_ORGANIZATION ( #122, #234 ) ;
#71 = CARTESIAN_POINT ( 'NONE',  ( 5.298805071068388947E-15, -0.2681483474218604446, 1.517638090205028378 ) ) ;
#72 = ADVANCED_FACE ( 'NONE', ( #163 ), #32, .F. ) ;
#73 = CIRCLE ( 'NONE', #222, 0.2000000000000002054 ) ;
#74 = VERTEX_POINT ( 'NONE', #19 ) ;
#75 = CALENDAR_DATE ( 2021, 16, 11 ) ;
#76 = CC_DESIGN_PERSON_AND_ORGANIZATION_ASSIGNMENT ( #232, #41, ( #157 ) ) ;
#77 = CIRCLE ( 'NONE', #96, 0.2000000000000000944 ) ;
#78 = ORIENTED_EDGE ( 'NONE', *, *, #119, .T. ) ;
#79 = AXIS2_PLACEMENT_3D ( 'NONE', #28, #103, #168 ) ;
#80 = ORIENTED_EDGE ( 'NONE', *, *, #1, .F. ) ;
#81 = CYLINDRICAL_SURFACE ( 'NONE', #120, 0.2000000000000001499 ) ;
#82 = ADVANCED_FACE ( 'NONE', ( #221 ), #68, .F. ) ;
#83 = EDGE_LOOP ( 'NONE', ( #24 ) ) ;
#84 = DIRECTION ( 'NONE',  ( -4.320190849422040846E-31, -1.000000000000000000, -1.219242935835426903E-16 ) ) ;
#85 = CIRCLE ( 'NONE', #30, 0.2000000000000002054 ) ;
#86 = EDGE_LOOP ( 'NONE', ( #11 ) ) ;
#87 = FACE_OUTER_BOUND ( 'NONE', #194, .T. ) ;
#88 = DIRECTION ( 'NONE',  ( 0.0000000000000000000, -1.000000000000000000, 0.0000000000000000000 ) ) ;
#89 = APPROVAL ( #52, 'UNSPECIFIED' ) ;
#90 = FACE_OUTER_BOUND ( 'NONE', #63, .T. ) ;
#91 = VERTEX_POINT ( 'NONE', #154 ) ;
#92 = APPROVAL ( #193, 'UNSPECIFIED' ) ;
#93 = VERTEX_POINT ( 'NONE', #156 ) ;
#94 = COORDINATED_UNIVERSAL_TIME_OFFSET ( 1, 0, .AHEAD. ) ;
#95 = EDGE_CURVE ( 'NONE', #54, #54, #113, .T. ) ;
#96 = AXIS2_PLACEMENT_3D ( 'NONE', #26, #109, #38 ) ;
#97 = PERSON_AND_ORGANIZATION ( #122, #234 ) ;
#98 = EDGE_LOOP ( 'NONE', ( #179 ) ) ;
#99 = CARTESIAN_POINT ( 'NONE',  ( 1.326762908760390170E-13, -4.653657836759941152E-15, 37.99999999999999289 ) ) ;
#100 = ORIENTED_EDGE ( 'NONE', *, *, #223, .F. ) ;
#101 = FACE_OUTER_BOUND ( 'NONE', #98, .T. ) ;
#102 = CARTESIAN_POINT ( 'NONE',  ( 3.438069304147544363E-14, -1.200591183277937582E-15, 9.847021852583390356 ) ) ;
#103 = DIRECTION ( 'NONE',  ( -3.491481338843133355E-15, 1.224646799147353207E-16, -1.000000000000000000 ) ) ;
#104 = AXIS2_PLACEMENT_3D ( 'NONE', #66, #50, #126 ) ;
#105 = CARTESIAN_POINT ( 'NONE',  ( 1.316288464743860707E-13, -4.616918432785519503E-15, 37.69999999999998153 ) ) ;
#106 = ADVANCED_FACE ( 'NONE', ( #64 ), #218, .F. ) ;
#107 = CARTESIAN_POINT ( 'NONE',  ( 1.326762908760390170E-13, 8.998558695971017012E-33, 37.99999999999999289 ) ) ;
#108 = AXIS2_PLACEMENT_3D ( 'NONE', #5, #227, #111 ) ;
#109 = DIRECTION ( 'NONE',  ( 3.491481338843133355E-15, -1.219242935835426903E-16, 1.000000000000000000 ) ) ;
#110 = CC_DESIGN_PERSON_AND_ORGANIZATION_ASSIGNMENT ( #213, #207, ( #140 ) ) ;
#111 = DIRECTION ( 'NONE',  ( 0.0000000000000000000, -1.000000000000000000, 0.0000000000000000000 ) ) ;
#112 = CC_DESIGN_APPROVAL ( #89, ( #140 ) ) ;
#113 = CIRCLE ( 'NONE', #239, 1.499999999999992006 ) ;
#114 = VERTEX_POINT ( 'NONE', #71 ) ;
#115 = DATE_AND_TIME ( #75, #20 ) ;
#116 = DATE_TIME_ROLE ( 'classification_date' ) ;
#117 = CALENDAR_DATE ( 2021, 16, 11 ) ;
#118 = PRODUCT ( '966118', '966118', '', ( #136 ) ) ;
#119 = EDGE_CURVE ( 'NONE', #91, #91, #73, .T. ) ;
#120 = AXIS2_PLACEMENT_3D ( 'NONE', #12, #14, #31 ) ;
#121 = DIRECTION ( 'NONE',  ( -3.491481338843133355E-15, 1.224646799147353207E-16, -1.000000000000000000 ) ) ;
#122 = PERSON ( 'UNSPECIFIED', 'UNSPECIFIED', 'UNSPECIFIED', ('UNSPECIFIED'), ('UNSPECIFIED'), ('UNSPECIFIED') ) ;
#123 = LOCAL_TIME ( 16, 44, 58.00000000000000000, #22 ) ;
#124 = ORIENTED_EDGE ( 'NONE', *, *, #158, .F. ) ;
#125 = DIRECTION ( 'NONE',  ( 3.491481338843133355E-15, -1.219242935835426903E-16, 1.000000000000000000 ) ) ;
#126 = DIRECTION ( 'NONE',  ( -4.275831445896958607E-31, -1.000000000000000000, -1.224646799147353207E-16 ) ) ;
#127 = EDGE_LOOP ( 'NONE', ( #238 ) ) ;
#128 = DIRECTION ( 'NONE',  ( -4.275831445896958607E-31, -1.000000000000000000, -1.224646799147353207E-16 ) ) ;
#129 = CC_DESIGN_DATE_AND_TIME_ASSIGNMENT ( #202, #51, ( #212 ) ) ;
#130 = APPROVAL_PERSON_ORGANIZATION ( #53, #215, #56 ) ;
#131 = DIRECTION ( 'NONE',  ( -3.491481338843133355E-15, 1.224646799147353207E-16, -1.000000000000000000 ) ) ;
#132 = PERSON_AND_ORGANIZATION ( #122, #234 ) ;
#133 = CC_DESIGN_PERSON_AND_ORGANIZATION_ASSIGNMENT ( #174, #191, ( #140 ) ) ;
#134 = PERSON_AND_ORGANIZATION_ROLE ( 'design_owner' ) ;
#135 = LOCAL_TIME ( 16, 44, 58.00000000000000000, #224 ) ;
#136 = MECHANICAL_CONTEXT ( 'NONE', #192, 'mechanical' ) ;
#137 =( LENGTH_UNIT ( ) NAMED_UNIT ( * ) SI_UNIT ( .MILLI., .METRE. ) );
#138 = APPROVAL_DATE_TIME ( #2, #215 ) ;
#139 = AXIS2_PLACEMENT_3D ( 'NONE', #48, #243, #84 ) ;
#140 = PRODUCT_DEFINITION_FORMATION_WITH_SPECIFIED_SOURCE ( 'ANY', '', #118, .NOT_KNOWN. ) ;
#141 = APPROVAL_ROLE ( '' ) ;
#142 = DATE_AND_TIME ( #6, #144 ) ;
#143 = AXIS2_PLACEMENT_3D ( 'NONE', #102, #125, #180 ) ;
#144 = LOCAL_TIME ( 16, 44, 58.00000000000000000, #185 ) ;
#145 = CARTESIAN_POINT ( 'NONE',  ( 3.491481338843130989E-15, -1.219242935835426163E-16, 0.9999999999999993339 ) ) ;
#146 = DIRECTION ( 'NONE',  ( 0.0000000000000000000, -1.000000000000000000, 0.0000000000000000000 ) ) ;
#147 = APPROVAL_PERSON_ORGANIZATION ( #97, #92, #141 ) ;
#148 = EDGE_LOOP ( 'NONE', ( #27 ) ) ;
#149 = CARTESIAN_POINT ( 'NONE',  ( -2.137917073001454058E-30, 7.498803648657679327E-32, -6.123237862442165323E-16 ) ) ;
#150 = PLANE ( 'NONE',  #39 ) ;
#151 = CLOSED_SHELL ( 'NONE', ( #37, #176, #82, #55, #59, #106 ) ) ;
#152 = CIRCLE ( 'NONE', #44, 0.2681483474218602781 ) ;
#153 = DIRECTION ( 'NONE',  ( 1.000000000000000000, 0.0000000000000000000, 0.0000000000000000000 ) ) ;
#154 = CARTESIAN_POINT ( 'NONE',  ( 3.491481338843130989E-15, -0.2000000000000003164, 0.9999999999999993339 ) ) ;
#155 = APPLICATION_PROTOCOL_DEFINITION ( 'international standard', 'config_control_design', 1994, #192 ) ;
#156 = CARTESIAN_POINT ( 'NONE',  ( 3.491481338843130989E-15, -0.2000000000000003164, 0.9999999999999993339 ) ) ;
#157 = SECURITY_CLASSIFICATION ( '', '', #159 ) ;
#158 = EDGE_CURVE ( 'NONE', #114, #114, #152, .T. ) ;
#159 = SECURITY_CLASSIFICATION_LEVEL ( 'unclassified' ) ;
#160 = ORIENTED_EDGE ( 'NONE', *, *, #203, .T. ) ;
#161 = EDGE_CURVE ( 'NONE', #93, #93, #85, .T. ) ;
#162 = ORIENTED_EDGE ( 'NONE', *, *, #119, .F. ) ;
#163 = FACE_OUTER_BOUND ( 'NONE', #83, .T. ) ;
#164 = EDGE_LOOP ( 'NONE', ( #160 ) ) ;
#165 = TOROIDAL_SURFACE ( 'NONE', #139, 2.200000000000000178, 2.000000000000000000 ) ;
#166 = FACE_OUTER_BOUND ( 'NONE', #65, .T. ) ;
#167 = FACE_BOUND ( 'NONE', #148, .T. ) ;
#168 = DIRECTION ( 'NONE',  ( 4.275831445896959482E-31, 1.000000000000000000, 1.224646799147353207E-16 ) ) ;
#169 = LOCAL_TIME ( 16, 44, 58.00000000000000000, #21 ) ;
#170 = PERSON_AND_ORGANIZATION_ROLE ( 'creator' ) ;
#171 = APPLICATION_PROTOCOL_DEFINITION ( 'international standard', 'config_control_design', 1994, #67 ) ;
#172 = ADVANCED_FACE ( 'NONE', ( #214 ), #150, .T. ) ;
#173 = CC_DESIGN_PERSON_AND_ORGANIZATION_ASSIGNMENT ( #70, #170, ( #212 ) ) ;
#174 = PERSON_AND_ORGANIZATION ( #122, #234 ) ;
#175 = DESIGN_CONTEXT ( 'detailed design', #67, 'design' ) ;
#176 = ADVANCED_FACE ( 'NONE', ( #87, #167 ), #49, .T. ) ;
#177 = EDGE_LOOP ( 'NONE', ( #61 ) ) ;
#178 = DIRECTION ( 'NONE',  ( 3.491481338843133355E-15, -1.219242935835426903E-16, 1.000000000000000000 ) ) ;
#179 = ORIENTED_EDGE ( 'NONE', *, *, #223, .T. ) ;
#180 = DIRECTION ( 'NONE',  ( 0.0000000000000000000, -1.000000000000000000, 0.0000000000000000000 ) ) ;
#181 = DIRECTION ( 'NONE',  ( 3.491481338843133355E-15, -1.224646799147353207E-16, 1.000000000000000000 ) ) ;
#182 = AXIS2_PLACEMENT_3D ( 'NONE', #242, #121, #195 ) ;
#183 = FACE_OUTER_BOUND ( 'NONE', #86, .T. ) ;
#184 = FACE_OUTER_BOUND ( 'NONE', #177, .T. ) ;
#185 = COORDINATED_UNIVERSAL_TIME_OFFSET ( 1, 0, .AHEAD. ) ;
#186 = VERTEX_POINT ( 'NONE', #230 ) ;
#187 = APPROVAL_PERSON_ORGANIZATION ( #132, #89, #201 ) ;
#188 = DIRECTION ( 'NONE',  ( 0.0000000000000000000, 0.0000000000000000000, 1.000000000000000000 ) ) ;
#189 = PRODUCT_RELATED_PRODUCT_CATEGORY ( 'detail', '', ( #118 ) ) ;
#190 = APPROVAL_DATE_TIME ( #115, #92 ) ;
#191 = PERSON_AND_ORGANIZATION_ROLE ( 'creator' ) ;
#192 = APPLICATION_CONTEXT ( 'configuration controlled 3d designs of mechanical parts and assemblies' ) ;
#193 = APPROVAL_STATUS ( 'not_yet_approved' ) ;
#194 = EDGE_LOOP ( 'NONE', ( #9 ) ) ;
#195 = DIRECTION ( 'NONE',  ( 0.0000000000000000000, 1.000000000000000000, 0.0000000000000000000 ) ) ;
#196 = CYLINDRICAL_SURFACE ( 'NONE', #79, 1.499999999999989786 ) ;
#197 = CARTESIAN_POINT ( 'NONE',  ( 3.491481338843133355E-15, -1.445602896647343354E-16, 1.000000000000000000 ) ) ;
#198 = DIRECTION ( 'NONE',  ( -3.491481338843133355E-15, 1.224646799147353207E-16, -1.000000000000000000 ) ) ;
#199 = DIRECTION ( 'NONE',  ( 0.0000000000000000000, 1.000000000000000000, 0.0000000000000000000 ) ) ;
#200 = CALENDAR_DATE ( 2021, 16, 11 ) ;
#201 = APPROVAL_ROLE ( '' ) ;
#202 = DATE_AND_TIME ( #205, #135 ) ;
#203 = EDGE_CURVE ( 'NONE', #186, #186, #77, .T. ) ;
#204 = VERTEX_POINT ( 'NONE', #3 ) ;
#205 = CALENDAR_DATE ( 2021, 16, 11 ) ;
#206 = CONICAL_SURFACE ( 'NONE', #143, 2.499999999999991118, 0.2617993877991430240 ) ;
#207 = PERSON_AND_ORGANIZATION_ROLE ( 'design_supplier' ) ;
#208 = MANIFOLD_SOLID_BREP ( 'Corps-Déplacer/Copier1[1]', #151 ) ;
#209 = PRODUCT_DEFINITION_SHAPE ( 'NONE', 'NONE',  #212 ) ;
#210 = CIRCLE ( 'NONE', #108, 1.499999999999989786 ) ;
#211 = APPROVAL_DATE_TIME ( #142, #89 ) ;
#212 = PRODUCT_DEFINITION ( 'UNKNOWN', '', #140, #175 ) ;
#213 = PERSON_AND_ORGANIZATION ( #122, #234 ) ;
#214 = FACE_OUTER_BOUND ( 'NONE', #42, .T. ) ;
#215 = APPROVAL ( #231, 'UNSPECIFIED' ) ;
#216 = CARTESIAN_POINT ( 'NONE',  ( 5.298805071068388947E-15, -1.850369520637249153E-16, 1.517638090205028378 ) ) ;
#217 = ORIENTED_EDGE ( 'NONE', *, *, #161, .T. ) ;
#218 = PLANE ( 'NONE',  #104 ) ;
#219 = FACE_OUTER_BOUND ( 'NONE', #164, .T. ) ;
#220 = AXIS2_PLACEMENT_3D ( 'NONE', #149, #62, #128 ) ;
#221 = FACE_OUTER_BOUND ( 'NONE', #235, .T. ) ;
#222 = AXIS2_PLACEMENT_3D ( 'NONE', #60, #29, #146 ) ;
#223 = EDGE_CURVE ( 'NONE', #204, #204, #210, .T. ) ;
#224 = COORDINATED_UNIVERSAL_TIME_OFFSET ( 1, 0, .AHEAD. ) ;
#225 = ADVANCED_BREP_SHAPE_REPRESENTATION ( '966118', ( #208, #45, #229 ), #4 ) ;
#226 = PERSON_AND_ORGANIZATION ( #122, #234 ) ;
#227 = DIRECTION ( 'NONE',  ( -3.491481338843133355E-15, 1.219242935835426903E-16, -1.000000000000000000 ) ) ;
#228 = AXIS2_PLACEMENT_3D ( 'NONE', #99, #236, #199 ) ;
#229 = AXIS2_PLACEMENT_3D ( 'NONE', #33, #188, #153 ) ;
#230 = CARTESIAN_POINT ( 'NONE',  ( -5.087487421206874150E-30, -0.2000000000000000944, -1.457114309793951443E-15 ) ) ;
#231 = APPROVAL_STATUS ( 'not_yet_approved' ) ;
#232 = PERSON_AND_ORGANIZATION ( #122, #234 ) ;
#233 = CC_DESIGN_DATE_AND_TIME_ASSIGNMENT ( #58, #116, ( #157 ) ) ;
#234 = ORGANIZATION ( 'UNSPECIFIED', 'UNSPECIFIED', '' ) ;
#235 = EDGE_LOOP ( 'NONE', ( #80 ) ) ;
#236 = DIRECTION ( 'NONE',  ( -3.491481338843133355E-15, 1.224646799147353207E-16, -1.000000000000000000 ) ) ;
#237 = CLOSED_SHELL ( 'NONE', ( #172, #57, #72 ) ) ;
#238 = ORIENTED_EDGE ( 'NONE', *, *, #158, .T. ) ;
#239 = AXIS2_PLACEMENT_3D ( 'NONE', #105, #131, #15 ) ;
#240 = DIRECTION ( 'NONE',  ( 4.275831445896958607E-31, 1.000000000000000000, 1.224646799147353207E-16 ) ) ;
#241 = EDGE_LOOP ( 'NONE', ( #100 ) ) ;
#242 = CARTESIAN_POINT ( 'NONE',  ( 1.326762908760390170E-13, -4.653657836759941152E-15, 37.99999999999999289 ) ) ;
#243 = DIRECTION ( 'NONE',  ( 3.491481338843133355E-15, -1.219242935835426903E-16, 1.000000000000000000 ) ) ;
ENDSEC;
END-ISO-10303-21;
