ISO-10303-21;
HEADER;
FILE_DESCRIPTION (( 'STEP AP203' ),
    '1' );
FILE_NAME ('966117.step',
    '2021-11-16T15:44:57',
    ( '' ),
    ( '' ),
    'SwSTEP 2.0',
    'SolidWorks 2019',
    '' );
FILE_SCHEMA (( 'CONFIG_CONTROL_DESIGN' ));
ENDSEC;

DATA;
#1 = PLANE ( 'NONE',  #31 ) ;
#2 = DIRECTION ( 'NONE',  ( -3.491481338843133355E-15, 1.219242935835426903E-16, -1.000000000000000000 ) ) ;
#3 = AXIS2_PLACEMENT_3D ( 'NONE', #228, #4, #120 ) ;
#4 = DIRECTION ( 'NONE',  ( 3.491481338843133355E-15, -1.219242935835426903E-16, 1.000000000000000000 ) ) ;
#5 = APPROVAL ( #132, 'UNSPECIFIED' ) ;
#6 = AXIS2_PLACEMENT_3D ( 'NONE', #125, #143, #216 ) ;
#7 = AXIS2_PLACEMENT_3D ( 'NONE', #97, #79, #158 ) ;
#8 = DATE_AND_TIME ( #111, #237 ) ;
#9 = PRODUCT_RELATED_PRODUCT_CATEGORY ( 'detail', '', ( #201 ) ) ;
#10 = ORIENTED_EDGE ( 'NONE', *, *, #47, .F. ) ;
#11 = APPROVAL_DATE_TIME ( #8, #5 ) ;
#12 = EDGE_LOOP ( 'NONE', ( #207 ) ) ;
#13 = CALENDAR_DATE ( 2021, 16, 11 ) ;
#14 = EDGE_LOOP ( 'NONE', ( #189 ) ) ;
#15 = CARTESIAN_POINT ( 'NONE',  ( 1.326762908760390170E-13, 8.998558695971017012E-33, 37.99999999999999289 ) ) ;
#16 = CC_DESIGN_DATE_AND_TIME_ASSIGNMENT ( #51, #238, ( #68 ) ) ;
#17 = CARTESIAN_POINT ( 'NONE',  ( 3.142333204958819231E-15, -1.097318642251883818E-16, 0.8999999999999998002 ) ) ;
#18 = FACE_OUTER_BOUND ( 'NONE', #73, .T. ) ;
#19 = PLANE ( 'NONE',  #183 ) ;
#20 = LOCAL_TIME ( 16, 44, 57.00000000000000000, #234 ) ;
#21 = DESIGN_CONTEXT ( 'detailed design', #144, 'design' ) ;
#22 = AXIS2_PLACEMENT_3D ( 'NONE', #15, #212, #175 ) ;
#23 = EDGE_CURVE ( 'NONE', #107, #107, #100, .T. ) ;
#24 = CARTESIAN_POINT ( 'NONE',  ( 4.949656937184069301E-15, -1.728445227053704590E-16, 1.417638090205026735 ) ) ;
#25 = PERSON ( 'UNSPECIFIED', 'UNSPECIFIED', 'UNSPECIFIED', ('UNSPECIFIED'), ('UNSPECIFIED'), ('UNSPECIFIED') ) ;
#26 = PERSON_AND_ORGANIZATION ( #25, #153 ) ;
#27 = COORDINATED_UNIVERSAL_TIME_OFFSET ( 1, 0, .AHEAD. ) ;
#28 = LOCAL_TIME ( 16, 44, 57.00000000000000000, #70 ) ;
#29 = EDGE_LOOP ( 'NONE', ( #32 ) ) ;
#30 = APPROVAL_ROLE ( '' ) ;
#31 = AXIS2_PLACEMENT_3D ( 'NONE', #227, #57, #65 ) ;
#32 = ORIENTED_EDGE ( 'NONE', *, *, #23, .F. ) ;
#33 = APPROVAL ( #108, 'UNSPECIFIED' ) ;
#34 = DIRECTION ( 'NONE',  ( 3.491481338843133355E-15, -1.219242935835426903E-16, 1.000000000000000000 ) ) ;
#35 = APPROVAL_PERSON_ORGANIZATION ( #26, #139, #45 ) ;
#36 = CARTESIAN_POINT ( 'NONE',  ( 1.316288464743860707E-13, -4.616918432785519503E-15, 37.69999999999998153 ) ) ;
#37 = CARTESIAN_POINT ( 'NONE',  ( 3.142333204958819231E-15, -1.097318642251883818E-16, 0.8999999999999998002 ) ) ;
#38 = DIRECTION ( 'NONE',  ( 3.491481338843133355E-15, -1.219242935835426903E-16, 1.000000000000000000 ) ) ;
#39 = CC_DESIGN_PERSON_AND_ORGANIZATION_ASSIGNMENT ( #124, #86, ( #102 ) ) ;
#40 = CARTESIAN_POINT ( 'NONE',  ( 2.132691880110564069E-14, -7.447467870471141745E-16, 6.108272315203636893 ) ) ;
#41 = AXIS2_PLACEMENT_3D ( 'NONE', #171, #116, #213 ) ;
#42 = AXIS2_PLACEMENT_3D ( 'NONE', #17, #58, #138 ) ;
#43 = APPROVAL_DATE_TIME ( #180, #139 ) ;
#44 =( LENGTH_UNIT ( ) NAMED_UNIT ( * ) SI_UNIT ( .MILLI., .METRE. ) );
#45 = APPROVAL_ROLE ( '' ) ;
#46 = EDGE_LOOP ( 'NONE', ( #205 ) ) ;
#47 = EDGE_CURVE ( 'NONE', #63, #63, #232, .T. ) ;
#48 = SECURITY_CLASSIFICATION_LEVEL ( 'unclassified' ) ;
#49 = EDGE_LOOP ( 'NONE', ( #10 ) ) ;
#50 = CIRCLE ( 'NONE', #3, 0.1750000000000000167 ) ;
#51 = DATE_AND_TIME ( #203, #20 ) ;
#52 = CIRCLE ( 'NONE', #195, 1.499999999999989786 ) ;
#53 = EDGE_LOOP ( 'NONE', ( #236 ) ) ;
#54 = ADVANCED_BREP_SHAPE_REPRESENTATION ( '966117', ( #129, #211, #6 ), #187 ) ;
#55 = FACE_OUTER_BOUND ( 'NONE', #221, .T. ) ;
#56 = CARTESIAN_POINT ( 'NONE',  ( 3.142333204958818442E-15, 0.0000000000000000000, 0.8999999999999995781 ) ) ;
#57 = DIRECTION ( 'NONE',  ( 3.491481338843133355E-15, -1.224646799147353207E-16, 1.000000000000000000 ) ) ;
#58 = DIRECTION ( 'NONE',  ( 3.491481338843133355E-15, -1.219242935835426903E-16, 1.000000000000000000 ) ) ;
#59 = DIRECTION ( 'NONE',  ( -4.275831445896958607E-31, -1.000000000000000000, -1.224646799147353207E-16 ) ) ;
#60 = VERTEX_POINT ( 'NONE', #219 ) ;
#61 = PRODUCT_DEFINITION_FORMATION_WITH_SPECIFIED_SOURCE ( 'ANY', '', #201, .NOT_KNOWN. ) ;
#62 = ADVANCED_FACE ( 'NONE', ( #95 ), #177, .F. ) ;
#63 = VERTEX_POINT ( 'NONE', #105 ) ;
#64 = CARTESIAN_POINT ( 'NONE',  ( 4.949656937184069301E-15, -0.2431483474218597285, 1.417638090205026735 ) ) ;
#65 = DIRECTION ( 'NONE',  ( -4.275831445896958607E-31, -1.000000000000000000, -1.224646799147353207E-16 ) ) ;
#66 = PERSON_AND_ORGANIZATION ( #25, #153 ) ;
#67 = ORIENTED_EDGE ( 'NONE', *, *, #131, .F. ) ;
#68 = SECURITY_CLASSIFICATION ( '', '', #48 ) ;
#69 = CC_DESIGN_PERSON_AND_ORGANIZATION_ASSIGNMENT ( #101, #217, ( #201 ) ) ;
#70 = COORDINATED_UNIVERSAL_TIME_OFFSET ( 1, 0, .AHEAD. ) ;
#71 = EDGE_LOOP ( 'NONE', ( #223 ) ) ;
#72 = PERSON_AND_ORGANIZATION ( #25, #153 ) ;
#73 = EDGE_LOOP ( 'NONE', ( #188 ) ) ;
#74 = CARTESIAN_POINT ( 'NONE',  ( -2.137917073001454058E-30, 7.498803648657679327E-32, -6.123237862442165323E-16 ) ) ;
#75 = ADVANCED_FACE ( 'NONE', ( #136 ), #154, .F. ) ;
#76 = DIRECTION ( 'NONE',  ( 3.491481338843133355E-15, -1.219242935835426903E-16, 1.000000000000000000 ) ) ;
#77 = DIRECTION ( 'NONE',  ( 0.0000000000000000000, 1.000000000000000000, 0.0000000000000000000 ) ) ;
#78 = UNCERTAINTY_MEASURE_WITH_UNIT (LENGTH_MEASURE( 1.000000000000000082E-05 ), #44, 'distance_accuracy_value', 'NONE');
#79 = DIRECTION ( 'NONE',  ( -3.491481338843133355E-15, 1.224646799147353207E-16, -1.000000000000000000 ) ) ;
#80 = DIRECTION ( 'NONE',  ( 3.491481338843133355E-15, -1.224646799147353207E-16, 1.000000000000000000 ) ) ;
#81 = VERTEX_POINT ( 'NONE', #178 ) ;
#82 = CC_DESIGN_PERSON_AND_ORGANIZATION_ASSIGNMENT ( #72, #148, ( #68 ) ) ;
#83 = APPLICATION_CONTEXT ( 'configuration controlled 3d designs of mechanical parts and assemblies' ) ;
#84 = CARTESIAN_POINT ( 'NONE',  ( 3.142333204958819231E-15, -0.1750000000000000167, 0.8999999999999998002 ) ) ;
#85 = APPLICATION_PROTOCOL_DEFINITION ( 'international standard', 'config_control_design', 1994, #144 ) ;
#86 = PERSON_AND_ORGANIZATION_ROLE ( 'creator' ) ;
#87 = AXIS2_PLACEMENT_3D ( 'NONE', #24, #76, #157 ) ;
#88 = DATE_AND_TIME ( #185, #109 ) ;
#89 = DATE_AND_TIME ( #13, #28 ) ;
#90 = CC_DESIGN_PERSON_AND_ORGANIZATION_ASSIGNMENT ( #113, #151, ( #61 ) ) ;
#91 = PERSON_AND_ORGANIZATION ( #25, #153 ) ;
#92 = AXIS2_PLACEMENT_3D ( 'NONE', #164, #141, #197 ) ;
#93 = COORDINATED_UNIVERSAL_TIME_OFFSET ( 1, 0, .AHEAD. ) ;
#94 = AXIS2_PLACEMENT_3D ( 'NONE', #56, #34, #192 ) ;
#95 = FACE_OUTER_BOUND ( 'NONE', #14, .T. ) ;
#96 = FACE_OUTER_BOUND ( 'NONE', #133, .T. ) ;
#97 = CARTESIAN_POINT ( 'NONE',  ( 0.0000000000000000000, 0.0000000000000000000, 0.0000000000000000000 ) ) ;
#98 = CONICAL_SURFACE ( 'NONE', #92, 1.199999999999992184, 0.7853981633974338461 ) ;
#99 = DIRECTION ( 'NONE',  ( 0.0000000000000000000, -1.000000000000000000, 0.0000000000000000000 ) ) ;
#100 = CIRCLE ( 'NONE', #42, 0.1749999999999999056 ) ;
#101 = PERSON_AND_ORGANIZATION ( #25, #153 ) ;
#102 = PRODUCT_DEFINITION ( 'UNKNOWN', '', #61, #21 ) ;
#103 = COORDINATED_UNIVERSAL_TIME_OFFSET ( 1, 0, .AHEAD. ) ;
#104 = CC_DESIGN_APPROVAL ( #139, ( #102 ) ) ;
#105 = CARTESIAN_POINT ( 'NONE',  ( 1.316288464743860707E-13, 1.499999999999987566, 37.69999999999998153 ) ) ;
#106 = EDGE_CURVE ( 'NONE', #233, #233, #52, .T. ) ;
#107 = VERTEX_POINT ( 'NONE', #163 ) ;
#108 = APPROVAL_STATUS ( 'not_yet_approved' ) ;
#109 = LOCAL_TIME ( 16, 44, 57.00000000000000000, #93 ) ;
#110 = CIRCLE ( 'NONE', #242, 0.1749999999999999056 ) ;
#111 = CALENDAR_DATE ( 2021, 16, 11 ) ;
#112 = ORIENTED_EDGE ( 'NONE', *, *, #127, .T. ) ;
#113 = PERSON_AND_ORGANIZATION ( #25, #153 ) ;
#114 = EDGE_LOOP ( 'NONE', ( #67 ) ) ;
#115 = ADVANCED_FACE ( 'NONE', ( #137, #18 ), #121, .T. ) ;
#116 = DIRECTION ( 'NONE',  ( -3.491481338843133355E-15, 1.224646799147353207E-16, -1.000000000000000000 ) ) ;
#117 = CIRCLE ( 'NONE', #87, 0.2431483474218595620 ) ;
#118 = DIRECTION ( 'NONE',  ( 3.491481338843133355E-15, -1.219242935835426903E-16, 1.000000000000000000 ) ) ;
#119 = FACE_OUTER_BOUND ( 'NONE', #184, .T. ) ;
#120 = DIRECTION ( 'NONE',  ( -4.256963957985700131E-31, -1.000000000000000000, -1.219242935835430354E-16 ) ) ;
#121 = CYLINDRICAL_SURFACE ( 'NONE', #7, 1.499999999999989786 ) ;
#122 = EDGE_CURVE ( 'NONE', #181, #181, #110, .T. ) ;
#123 = FACE_BOUND ( 'NONE', #53, .T. ) ;
#124 = PERSON_AND_ORGANIZATION ( #25, #153 ) ;
#125 = CARTESIAN_POINT ( 'NONE',  ( 0.0000000000000000000, 0.0000000000000000000, 0.0000000000000000000 ) ) ;
#126 =( NAMED_UNIT ( * ) PLANE_ANGLE_UNIT ( ) SI_UNIT ( $, .RADIAN. ) );
#127 = EDGE_CURVE ( 'NONE', #146, #146, #117, .T. ) ;
#128 = DATE_TIME_ROLE ( 'creation_date' ) ;
#129 = MANIFOLD_SOLID_BREP ( 'Corps-Déplacer/Copier1[1]', #165 ) ;
#130 = EDGE_LOOP ( 'NONE', ( #239 ) ) ;
#131 = EDGE_CURVE ( 'NONE', #60, #60, #204, .T. ) ;
#132 = APPROVAL_STATUS ( 'not_yet_approved' ) ;
#133 = EDGE_LOOP ( 'NONE', ( #152 ) ) ;
#134 = EDGE_CURVE ( 'NONE', #81, #81, #50, .T. ) ;
#135 = DIRECTION ( 'NONE',  ( 3.491481338843133355E-15, -1.224646799147353207E-16, 1.000000000000000000 ) ) ;
#136 = FACE_OUTER_BOUND ( 'NONE', #114, .T. ) ;
#137 = FACE_OUTER_BOUND ( 'NONE', #130, .T. ) ;
#138 = DIRECTION ( 'NONE',  ( 0.0000000000000000000, -1.000000000000000000, 0.0000000000000000000 ) ) ;
#139 = APPROVAL ( #182, 'UNSPECIFIED' ) ;
#140 = APPROVAL_PERSON_ORGANIZATION ( #66, #33, #220 ) ;
#141 = DIRECTION ( 'NONE',  ( -3.491481338843133355E-15, 1.224646799147353207E-16, -1.000000000000000000 ) ) ;
#142 = AXIS2_PLACEMENT_3D ( 'NONE', #74, #135, #243 ) ;
#143 = DIRECTION ( 'NONE',  ( 0.0000000000000000000, 0.0000000000000000000, 1.000000000000000000 ) ) ;
#144 = APPLICATION_CONTEXT ( 'configuration controlled 3d designs of mechanical parts and assemblies' ) ;
#145 = ADVANCED_FACE ( 'NONE', ( #193 ), #19, .T. ) ;
#146 = VERTEX_POINT ( 'NONE', #64 ) ;
#147 = APPROVAL_DATE_TIME ( #89, #33 ) ;
#148 = PERSON_AND_ORGANIZATION_ROLE ( 'classification_officer' ) ;
#149 = AXIS2_PLACEMENT_3D ( 'NONE', #226, #196, #241 ) ;
#150 = ORIENTED_EDGE ( 'NONE', *, *, #127, .F. ) ;
#151 = PERSON_AND_ORGANIZATION_ROLE ( 'creator' ) ;
#152 = ORIENTED_EDGE ( 'NONE', *, *, #122, .F. ) ;
#153 = ORGANIZATION ( 'UNSPECIFIED', 'UNSPECIFIED', '' ) ;
#154 = PLANE ( 'NONE',  #22 ) ;
#155 = ADVANCED_FACE ( 'NONE', ( #174, #159 ), #156, .T. ) ;
#156 = CYLINDRICAL_SURFACE ( 'NONE', #210, 0.1749999999999999611 ) ;
#157 = DIRECTION ( 'NONE',  ( 0.0000000000000000000, -1.000000000000000000, 0.0000000000000000000 ) ) ;
#158 = DIRECTION ( 'NONE',  ( 4.275831445896959482E-31, 1.000000000000000000, 1.224646799147353207E-16 ) ) ;
#159 = FACE_OUTER_BOUND ( 'NONE', #29, .T. ) ;
#160 = CALENDAR_DATE ( 2021, 16, 11 ) ;
#161 = APPLICATION_PROTOCOL_DEFINITION ( 'international standard', 'config_control_design', 1994, #83 ) ;
#162 = CC_DESIGN_DATE_AND_TIME_ASSIGNMENT ( #88, #128, ( #102 ) ) ;
#163 = CARTESIAN_POINT ( 'NONE',  ( 3.142333204958819231E-15, -0.1750000000000000167, 0.8999999999999998002 ) ) ;
#164 = CARTESIAN_POINT ( 'NONE',  ( 1.326762908760390170E-13, -4.653657836759941152E-15, 37.99999999999999289 ) ) ;
#165 = CLOSED_SHELL ( 'NONE', ( #115, #224, #75, #167, #176, #218 ) ) ;
#166 = PERSON_AND_ORGANIZATION_ROLE ( 'design_supplier' ) ;
#167 = ADVANCED_FACE ( 'NONE', ( #214, #119 ), #179, .T. ) ;
#168 = EDGE_LOOP ( 'NONE', ( #112 ) ) ;
#169 = PRODUCT_DEFINITION_SHAPE ( 'NONE', 'NONE',  #102 ) ;
#170 = ORIENTED_EDGE ( 'NONE', *, *, #106, .T. ) ;
#171 = CARTESIAN_POINT ( 'NONE',  ( 1.326762908760390170E-13, -4.653657836759941152E-15, 37.99999999999999289 ) ) ;
#172 = CC_DESIGN_APPROVAL ( #5, ( #61 ) ) ;
#173 = DIRECTION ( 'NONE',  ( -3.491481338843133355E-15, 1.224646799147353207E-16, -1.000000000000000000 ) ) ;
#174 = FACE_OUTER_BOUND ( 'NONE', #46, .T. ) ;
#175 = DIRECTION ( 'NONE',  ( 4.275831445896958607E-31, 1.000000000000000000, 1.224646799147353207E-16 ) ) ;
#176 = ADVANCED_FACE ( 'NONE', ( #225, #55 ), #194, .F. ) ;
#177 = PLANE ( 'NONE',  #142 ) ;
#178 = CARTESIAN_POINT ( 'NONE',  ( -5.066202601416946074E-30, -0.1750000000000000167, -1.451018095114774535E-15 ) ) ;
#179 = CONICAL_SURFACE ( 'NONE', #149, 2.499999999999991118, 0.2617993877991429685 ) ;
#180 = DATE_AND_TIME ( #160, #191 ) ;
#181 = VERTEX_POINT ( 'NONE', #84 ) ;
#182 = APPROVAL_STATUS ( 'not_yet_approved' ) ;
#183 = AXIS2_PLACEMENT_3D ( 'NONE', #190, #80, #59 ) ;
#184 = EDGE_LOOP ( 'NONE', ( #170 ) ) ;
#185 = CALENDAR_DATE ( 2021, 16, 11 ) ;
#186 = PERSON_AND_ORGANIZATION ( #25, #153 ) ;
#187 =( GEOMETRIC_REPRESENTATION_CONTEXT ( 3 ) GLOBAL_UNCERTAINTY_ASSIGNED_CONTEXT ( ( #78 ) ) GLOBAL_UNIT_ASSIGNED_CONTEXT ( ( #44, #126, #200 ) ) REPRESENTATION_CONTEXT ( 'NONE', 'WORKASPACE' ) );
#188 = ORIENTED_EDGE ( 'NONE', *, *, #106, .F. ) ;
#189 = ORIENTED_EDGE ( 'NONE', *, *, #134, .F. ) ;
#190 = CARTESIAN_POINT ( 'NONE',  ( 3.142333204958818836E-15, 1.124819836996383764E-32, 0.8999999999999996891 ) ) ;
#191 = LOCAL_TIME ( 16, 44, 57.00000000000000000, #103 ) ;
#192 = DIRECTION ( 'NONE',  ( -4.336470827456546043E-31, -1.000000000000000000, -1.219242935835426903E-16 ) ) ;
#193 = FACE_OUTER_BOUND ( 'NONE', #12, .T. ) ;
#194 = TOROIDAL_SURFACE ( 'NONE', #94, 2.174999999999999822, 2.000000000000000000 ) ;
#195 = AXIS2_PLACEMENT_3D ( 'NONE', #40, #2, #99 ) ;
#196 = DIRECTION ( 'NONE',  ( 3.491481338843133355E-15, -1.219242935835426903E-16, 1.000000000000000000 ) ) ;
#197 = DIRECTION ( 'NONE',  ( 0.0000000000000000000, 1.000000000000000000, 0.0000000000000000000 ) ) ;
#198 = FACE_OUTER_BOUND ( 'NONE', #49, .T. ) ;
#199 = MECHANICAL_CONTEXT ( 'NONE', #83, 'mechanical' ) ;
#200 =( NAMED_UNIT ( * ) SI_UNIT ( $, .STERADIAN. ) SOLID_ANGLE_UNIT ( ) );
#201 = PRODUCT ( '966117', '966117', '', ( #199 ) ) ;
#202 = CC_DESIGN_APPROVAL ( #33, ( #68 ) ) ;
#203 = CALENDAR_DATE ( 2021, 16, 11 ) ;
#204 = CIRCLE ( 'NONE', #41, 1.199999999999992184 ) ;
#205 = ORIENTED_EDGE ( 'NONE', *, *, #134, .T. ) ;
#206 = CLOSED_SHELL ( 'NONE', ( #145, #155, #62 ) ) ;
#207 = ORIENTED_EDGE ( 'NONE', *, *, #23, .T. ) ;
#208 = DIRECTION ( 'NONE',  ( 0.0000000000000000000, -1.000000000000000000, 0.0000000000000000000 ) ) ;
#209 = CARTESIAN_POINT ( 'NONE',  ( 0.0000000000000000000, 0.0000000000000000000, 0.0000000000000000000 ) ) ;
#210 = AXIS2_PLACEMENT_3D ( 'NONE', #209, #118, #229 ) ;
#211 = MANIFOLD_SOLID_BREP ( 'Corps-Déplacer/Copier1[2]', #206 ) ;
#212 = DIRECTION ( 'NONE',  ( -3.491481338843133355E-15, 1.224646799147353207E-16, -1.000000000000000000 ) ) ;
#213 = DIRECTION ( 'NONE',  ( 0.0000000000000000000, 1.000000000000000000, 0.0000000000000000000 ) ) ;
#214 = FACE_BOUND ( 'NONE', #168, .T. ) ;
#215 = AXIS2_PLACEMENT_3D ( 'NONE', #36, #173, #77 ) ;
#216 = DIRECTION ( 'NONE',  ( 1.000000000000000000, 0.0000000000000000000, 0.0000000000000000000 ) ) ;
#217 = PERSON_AND_ORGANIZATION_ROLE ( 'design_owner' ) ;
#218 = ADVANCED_FACE ( 'NONE', ( #96 ), #1, .F. ) ;
#219 = CARTESIAN_POINT ( 'NONE',  ( 1.326762908760390170E-13, 1.199999999999987521, 37.99999999999999289 ) ) ;
#220 = APPROVAL_ROLE ( '' ) ;
#221 = EDGE_LOOP ( 'NONE', ( #150 ) ) ;
#222 = SHAPE_DEFINITION_REPRESENTATION ( #169, #54 ) ;
#223 = ORIENTED_EDGE ( 'NONE', *, *, #122, .T. ) ;
#224 = ADVANCED_FACE ( 'NONE', ( #198, #123 ), #98, .T. ) ;
#225 = FACE_OUTER_BOUND ( 'NONE', #71, .T. ) ;
#226 = CARTESIAN_POINT ( 'NONE',  ( 3.435730455134717165E-14, -1.199774445377851710E-15, 9.840323122772614894 ) ) ;
#227 = CARTESIAN_POINT ( 'NONE',  ( 3.142333204958818836E-15, 1.124819836996383764E-32, 0.8999999999999996891 ) ) ;
#228 = CARTESIAN_POINT ( 'NONE',  ( -4.991705732152196057E-30, 1.743128878847836013E-31, -1.429681343737654668E-15 ) ) ;
#229 = DIRECTION ( 'NONE',  ( -4.256963957985709765E-31, -1.000000000000000000, -1.219242935835426903E-16 ) ) ;
#230 = CARTESIAN_POINT ( 'NONE',  ( 2.132691880110564069E-14, -1.499999999999990452, 6.108272315203636893 ) ) ;
#231 = CC_DESIGN_SECURITY_CLASSIFICATION ( #68, ( #61 ) ) ;
#232 = CIRCLE ( 'NONE', #215, 1.499999999999992006 ) ;
#233 = VERTEX_POINT ( 'NONE', #230 ) ;
#234 = COORDINATED_UNIVERSAL_TIME_OFFSET ( 1, 0, .AHEAD. ) ;
#235 = CC_DESIGN_PERSON_AND_ORGANIZATION_ASSIGNMENT ( #91, #166, ( #61 ) ) ;
#236 = ORIENTED_EDGE ( 'NONE', *, *, #131, .T. ) ;
#237 = LOCAL_TIME ( 16, 44, 57.00000000000000000, #27 ) ;
#238 = DATE_TIME_ROLE ( 'classification_date' ) ;
#239 = ORIENTED_EDGE ( 'NONE', *, *, #47, .T. ) ;
#240 = APPROVAL_PERSON_ORGANIZATION ( #186, #5, #30 ) ;
#241 = DIRECTION ( 'NONE',  ( 0.0000000000000000000, -1.000000000000000000, 0.0000000000000000000 ) ) ;
#242 = AXIS2_PLACEMENT_3D ( 'NONE', #37, #38, #208 ) ;
#243 = DIRECTION ( 'NONE',  ( -4.275831445896958607E-31, -1.000000000000000000, -1.224646799147353207E-16 ) ) ;
ENDSEC;
END-ISO-10303-21;
