ISO-10303-21;
HEADER;
FILE_DESCRIPTION (( 'STEP AP203' ),
    '1' );
FILE_NAME ('966116.step',
    '2021-11-16T15:36:20',
    ( '' ),
    ( '' ),
    'SwSTEP 2.0',
    'SolidWorks 2019',
    '' );
FILE_SCHEMA (( 'CONFIG_CONTROL_DESIGN' ));
ENDSEC;

DATA;
#1 = AXIS2_PLACEMENT_3D ( 'NONE', #76, #201, #55 ) ;
#2 = EDGE_CURVE ( 'NONE', #24, #24, #126, .T. ) ;
#3 = PERSON ( 'UNSPECIFIED', 'UNSPECIFIED', 'UNSPECIFIED', ('UNSPECIFIED'), ('UNSPECIFIED'), ('UNSPECIFIED') ) ;
#4 = COORDINATED_UNIVERSAL_TIME_OFFSET ( 1, 0, .AHEAD. ) ;
#5 = AXIS2_PLACEMENT_3D ( 'NONE', #144, #6, #199 ) ;
#6 = DIRECTION ( 'NONE',  ( -3.491481338843133355E-15, 1.224646799147353207E-16, -1.000000000000000000 ) ) ;
#7 = CALENDAR_DATE ( 2021, 16, 11 ) ;
#8 = EDGE_LOOP ( 'NONE', ( #64 ) ) ;
#9 = DIRECTION ( 'NONE',  ( 1.000000000000000000, 0.0000000000000000000, 0.0000000000000000000 ) ) ;
#10 = DIRECTION ( 'NONE',  ( 3.491481338843133355E-15, -1.224646799147353207E-16, 1.000000000000000000 ) ) ;
#11 = DIRECTION ( 'NONE',  ( -3.491481338843133355E-15, 1.224646799147353207E-16, -1.000000000000000000 ) ) ;
#12 = VERTEX_POINT ( 'NONE', #137 ) ;
#13 = LOCAL_TIME ( 16, 36, 20.00000000000000000, #35 ) ;
#14 = CC_DESIGN_PERSON_AND_ORGANIZATION_ASSIGNMENT ( #95, #160, ( #31 ) ) ;
#15 = PERSON_AND_ORGANIZATION ( #3, #42 ) ;
#16 = PERSON_AND_ORGANIZATION ( #3, #42 ) ;
#17 = DIRECTION ( 'NONE',  ( -3.491481338843133355E-15, 1.224646799147353207E-16, -1.000000000000000000 ) ) ;
#18 = CALENDAR_DATE ( 2021, 16, 11 ) ;
#19 = AXIS2_PLACEMENT_3D ( 'NONE', #26, #89, #182 ) ;
#20 = CALENDAR_DATE ( 2021, 16, 11 ) ;
#21 = CARTESIAN_POINT ( 'NONE',  ( 5.586370142149013368E-14, -1.959434878635765131E-15, 16.00000000000000000 ) ) ;
#22 = LOCAL_TIME ( 16, 36, 20.00000000000000000, #4 ) ;
#23 = DIRECTION ( 'NONE',  ( 4.275831445896958607E-31, 1.000000000000000000, 1.224646799147353207E-16 ) ) ;
#24 = VERTEX_POINT ( 'NONE', #200 ) ;
#25 = PRODUCT ( '966116', '966116', '', ( #113 ) ) ;
#26 = CARTESIAN_POINT ( 'NONE',  ( 0.0000000000000000000, 0.0000000000000000000, 0.0000000000000000000 ) ) ;
#27 = CYLINDRICAL_SURFACE ( 'NONE', #132, 2.999999999999992450 ) ;
#28 = AXIS2_PLACEMENT_3D ( 'NONE', #143, #63, #9 ) ;
#29 = CARTESIAN_POINT ( 'NONE',  ( 0.0000000000000000000, 0.0000000000000000000, 0.0000000000000000000 ) ) ;
#30 = CIRCLE ( 'NONE', #1, 2.999999999999989342 ) ;
#31 = PRODUCT_DEFINITION_FORMATION_WITH_SPECIFIED_SOURCE ( 'ANY', '', #25, .NOT_KNOWN. ) ;
#32 = CALENDAR_DATE ( 2021, 16, 11 ) ;
#33 = EDGE_LOOP ( 'NONE', ( #48 ) ) ;
#34 = EDGE_CURVE ( 'NONE', #39, #39, #73, .T. ) ;
#35 = COORDINATED_UNIVERSAL_TIME_OFFSET ( 1, 0, .AHEAD. ) ;
#36 = APPLICATION_PROTOCOL_DEFINITION ( 'international standard', 'config_control_design', 1994, #62 ) ;
#37 = FACE_OUTER_BOUND ( 'NONE', #8, .T. ) ;
#38 = DIRECTION ( 'NONE',  ( 0.0000000000000000000, 1.000000000000000000, 0.0000000000000000000 ) ) ;
#39 = VERTEX_POINT ( 'NONE', #166 ) ;
#40 = AXIS2_PLACEMENT_3D ( 'NONE', #194, #175, #118 ) ;
#41 = ADVANCED_FACE ( 'NONE', ( #129, #53 ), #77, .T. ) ;
#42 = ORGANIZATION ( 'UNSPECIFIED', 'UNSPECIFIED', '' ) ;
#43 = PRODUCT_DEFINITION ( 'UNKNOWN', '', #31, #61 ) ;
#44 = ADVANCED_BREP_SHAPE_REPRESENTATION ( '966116', ( #112, #184, #28 ), #193 ) ;
#45 = PERSON_AND_ORGANIZATION ( #3, #42 ) ;
#46 = PERSON_AND_ORGANIZATION ( #3, #42 ) ;
#47 = ADVANCED_FACE ( 'NONE', ( #203, #102 ), #27, .T. ) ;
#48 = ORIENTED_EDGE ( 'NONE', *, *, #2, .F. ) ;
#49 = CALENDAR_DATE ( 2021, 16, 11 ) ;
#50 = ADVANCED_FACE ( 'NONE', ( #91 ), #123, .F. ) ;
#51 = CC_DESIGN_APPROVAL ( #173, ( #43 ) ) ;
#52 = DATE_TIME_ROLE ( 'classification_date' ) ;
#53 = FACE_BOUND ( 'NONE', #101, .T. ) ;
#54 = CARTESIAN_POINT ( 'NONE',  ( 2.182175836776957779E-13, -7.654042494670956226E-15, 62.49999999999998579 ) ) ;
#55 = DIRECTION ( 'NONE',  ( 0.0000000000000000000, 1.000000000000000000, 0.0000000000000000000 ) ) ;
#56 =( NAMED_UNIT ( * ) SI_UNIT ( $, .STERADIAN. ) SOLID_ANGLE_UNIT ( ) );
#57 = DIRECTION ( 'NONE',  ( 3.491481338843133355E-15, -1.224646799147353207E-16, 1.000000000000000000 ) ) ;
#58 = CC_DESIGN_DATE_AND_TIME_ASSIGNMENT ( #125, #52, ( #151 ) ) ;
#59 = CC_DESIGN_APPROVAL ( #191, ( #151 ) ) ;
#60 = ADVANCED_FACE ( 'NONE', ( #107 ), #136, .F. ) ;
#61 = DESIGN_CONTEXT ( 'detailed design', #80, 'design' ) ;
#62 = APPLICATION_CONTEXT ( 'configuration controlled 3d designs of mechanical parts and assemblies' ) ;
#63 = DIRECTION ( 'NONE',  ( 0.0000000000000000000, 0.0000000000000000000, 1.000000000000000000 ) ) ;
#64 = ORIENTED_EDGE ( 'NONE', *, *, #142, .F. ) ;
#65 = AXIS2_PLACEMENT_3D ( 'NONE', #103, #10, #74 ) ;
#66 = PERSON_AND_ORGANIZATION ( #3, #42 ) ;
#67 = ORIENTED_EDGE ( 'NONE', *, *, #171, .F. ) ;
#68 = APPROVAL_STATUS ( 'not_yet_approved' ) ;
#69 = ORIENTED_EDGE ( 'NONE', *, *, #34, .T. ) ;
#70 = APPROVAL ( #195, 'UNSPECIFIED' ) ;
#71 = APPROVAL_DATE_TIME ( #159, #70 ) ;
#72 = ORIENTED_EDGE ( 'NONE', *, *, #86, .T. ) ;
#73 = CIRCLE ( 'NONE', #5, 2.999999999999987121 ) ;
#74 = DIRECTION ( 'NONE',  ( -4.275831445896958607E-31, -1.000000000000000000, -1.224646799147353207E-16 ) ) ;
#75 = CARTESIAN_POINT ( 'NONE',  ( 2.199633243471174140E-13, 1.874699728327306136E-32, 63.00000000000000000 ) ) ;
#76 = CARTESIAN_POINT ( 'NONE',  ( 5.586370142149013368E-14, -1.959434878635765131E-15, 16.00000000000000000 ) ) ;
#77 = CONICAL_SURFACE ( 'NONE', #40, 2.499999999999994227, 0.7853981633974344012 ) ;
#78 = AXIS2_PLACEMENT_3D ( 'NONE', #122, #150, #186 ) ;
#79 = DIRECTION ( 'NONE',  ( 4.275831445896958607E-31, 1.000000000000000000, 1.224646799147353207E-16 ) ) ;
#80 = APPLICATION_CONTEXT ( 'configuration controlled 3d designs of mechanical parts and assemblies' ) ;
#81 = APPROVAL_PERSON_ORGANIZATION ( #66, #70, #96 ) ;
#82 = SECURITY_CLASSIFICATION_LEVEL ( 'unclassified' ) ;
#83 = APPROVAL_ROLE ( '' ) ;
#84 = CLOSED_SHELL ( 'NONE', ( #50, #121, #189 ) ) ;
#85 = AXIS2_PLACEMENT_3D ( 'NONE', #105, #57, #90 ) ;
#86 = EDGE_CURVE ( 'NONE', #155, #155, #108, .T. ) ;
#87 = PERSON_AND_ORGANIZATION_ROLE ( 'design_owner' ) ;
#88 = DIRECTION ( 'NONE',  ( 0.0000000000000000000, 1.000000000000000000, 0.0000000000000000000 ) ) ;
#89 = DIRECTION ( 'NONE',  ( -3.491481338843133355E-15, 1.224646799147353207E-16, -1.000000000000000000 ) ) ;
#90 = DIRECTION ( 'NONE',  ( -4.275831445896958607E-31, -1.000000000000000000, -1.224646799147353207E-16 ) ) ;
#91 = FACE_OUTER_BOUND ( 'NONE', #116, .T. ) ;
#92 = ADVANCED_FACE ( 'NONE', ( #187 ), #152, .F. ) ;
#93 = CC_DESIGN_APPROVAL ( #70, ( #31 ) ) ;
#94 = PERSON_AND_ORGANIZATION ( #3, #42 ) ;
#95 = PERSON_AND_ORGANIZATION ( #3, #42 ) ;
#96 = APPROVAL_ROLE ( '' ) ;
#97 = ORIENTED_EDGE ( 'NONE', *, *, #2, .T. ) ;
#98 = DATE_AND_TIME ( #18, #183 ) ;
#99 = PERSON_AND_ORGANIZATION_ROLE ( 'design_supplier' ) ;
#100 = EDGE_LOOP ( 'NONE', ( #114 ) ) ;
#101 = EDGE_LOOP ( 'NONE', ( #164 ) ) ;
#102 = FACE_OUTER_BOUND ( 'NONE', #148, .T. ) ;
#103 = CARTESIAN_POINT ( 'NONE',  ( 5.586370142149013368E-14, 2.249639673992775738E-32, 16.00000000000000000 ) ) ;
#104 =( NAMED_UNIT ( * ) PLANE_ANGLE_UNIT ( ) SI_UNIT ( $, .RADIAN. ) );
#105 = CARTESIAN_POINT ( 'NONE',  ( -2.137911398360250649E-30, 7.498783744695688887E-32, -6.123221609623798976E-16 ) ) ;
#106 = APPROVAL_PERSON_ORGANIZATION ( #16, #173, #115 ) ;
#107 = FACE_OUTER_BOUND ( 'NONE', #174, .T. ) ;
#108 = CIRCLE ( 'NONE', #188, 2.999999999999994671 ) ;
#109 = CC_DESIGN_PERSON_AND_ORGANIZATION_ASSIGNMENT ( #197, #99, ( #31 ) ) ;
#110 = DATE_AND_TIME ( #49, #163 ) ;
#111 = AXIS2_PLACEMENT_3D ( 'NONE', #135, #11, #38 ) ;
#112 = MANIFOLD_SOLID_BREP ( 'Corps-Déplacer/Copier1[1]', #161 ) ;
#113 = MECHANICAL_CONTEXT ( 'NONE', #62, 'mechanical' ) ;
#114 = ORIENTED_EDGE ( 'NONE', *, *, #86, .F. ) ;
#115 = APPROVAL_ROLE ( '' ) ;
#116 = EDGE_LOOP ( 'NONE', ( #69 ) ) ;
#117 = APPROVAL_DATE_TIME ( #110, #173 ) ;
#118 = DIRECTION ( 'NONE',  ( 0.0000000000000000000, 1.000000000000000000, 0.0000000000000000000 ) ) ;
#119 = FACE_OUTER_BOUND ( 'NONE', #146, .T. ) ;
#120 = PLANE ( 'NONE',  #65 ) ;
#121 = ADVANCED_FACE ( 'NONE', ( #168, #119 ), #139, .T. ) ;
#122 = CARTESIAN_POINT ( 'NONE',  ( 5.586370142149013368E-14, 2.249639673992775738E-32, 16.00000000000000000 ) ) ;
#123 = PLANE ( 'NONE',  #85 ) ;
#124 = APPROVAL_STATUS ( 'not_yet_approved' ) ;
#125 = DATE_AND_TIME ( #20, #22 ) ;
#126 = CIRCLE ( 'NONE', #156, 2.999999999999989342 ) ;
#127 = ORIENTED_EDGE ( 'NONE', *, *, #142, .T. ) ;
#128 = DATE_TIME_ROLE ( 'creation_date' ) ;
#129 = FACE_OUTER_BOUND ( 'NONE', #100, .T. ) ;
#130 = DATE_AND_TIME ( #7, #133 ) ;
#131 = DIRECTION ( 'NONE',  ( 0.0000000000000000000, 1.000000000000000000, 0.0000000000000000000 ) ) ;
#132 = AXIS2_PLACEMENT_3D ( 'NONE', #29, #165, #23 ) ;
#133 = LOCAL_TIME ( 16, 36, 20.00000000000000000, #145 ) ;
#134 = CC_DESIGN_DATE_AND_TIME_ASSIGNMENT ( #98, #128, ( #43 ) ) ;
#135 = CARTESIAN_POINT ( 'NONE',  ( 2.199633243471174140E-13, -7.715274834628325378E-15, 63.00000000000000000 ) ) ;
#136 = PLANE ( 'NONE',  #157 ) ;
#137 = CARTESIAN_POINT ( 'NONE',  ( 5.586370142149013368E-14, 2.999999999999987121, 16.00000000000000000 ) ) ;
#138 = CIRCLE ( 'NONE', #111, 2.499999999999994227 ) ;
#139 = CYLINDRICAL_SURFACE ( 'NONE', #19, 2.999999999999988010 ) ;
#140 = PRODUCT_RELATED_PRODUCT_CATEGORY ( 'detail', '', ( #25 ) ) ;
#141 = PERSON_AND_ORGANIZATION_ROLE ( 'classification_officer' ) ;
#142 = EDGE_CURVE ( 'NONE', #12, #12, #30, .T. ) ;
#143 = CARTESIAN_POINT ( 'NONE',  ( 0.0000000000000000000, 0.0000000000000000000, 0.0000000000000000000 ) ) ;
#144 = CARTESIAN_POINT ( 'NONE',  ( -4.275822796720501298E-30, 1.499756748939137777E-31, -1.224644321924759795E-15 ) ) ;
#145 = COORDINATED_UNIVERSAL_TIME_OFFSET ( 1, 0, .AHEAD. ) ;
#146 = EDGE_LOOP ( 'NONE', ( #127 ) ) ;
#147 = APPROVAL_DATE_TIME ( #130, #191 ) ;
#148 = EDGE_LOOP ( 'NONE', ( #72 ) ) ;
#149 = CC_DESIGN_PERSON_AND_ORGANIZATION_ASSIGNMENT ( #15, #87, ( #25 ) ) ;
#150 = DIRECTION ( 'NONE',  ( 3.491481338843133355E-15, -1.224646799147353207E-16, 1.000000000000000000 ) ) ;
#151 = SECURITY_CLASSIFICATION ( '', '', #82 ) ;
#152 = PLANE ( 'NONE',  #78 ) ;
#153 = DIRECTION ( 'NONE',  ( -3.491481338843133355E-15, 1.224646799147353207E-16, -1.000000000000000000 ) ) ;
#154 = CARTESIAN_POINT ( 'NONE',  ( 2.182175836776957779E-13, 2.999999999999987121, 62.49999999999998579 ) ) ;
#155 = VERTEX_POINT ( 'NONE', #154 ) ;
#156 = AXIS2_PLACEMENT_3D ( 'NONE', #21, #17, #131 ) ;
#157 = AXIS2_PLACEMENT_3D ( 'NONE', #75, #167, #79 ) ;
#158 = COORDINATED_UNIVERSAL_TIME_OFFSET ( 1, 0, .AHEAD. ) ;
#159 = DATE_AND_TIME ( #32, #13 ) ;
#160 = PERSON_AND_ORGANIZATION_ROLE ( 'creator' ) ;
#161 = CLOSED_SHELL ( 'NONE', ( #92, #47, #41, #60 ) ) ;
#162 = APPLICATION_PROTOCOL_DEFINITION ( 'international standard', 'config_control_design', 1994, #80 ) ;
#163 = LOCAL_TIME ( 16, 36, 20.00000000000000000, #192 ) ;
#164 = ORIENTED_EDGE ( 'NONE', *, *, #171, .T. ) ;
#165 = DIRECTION ( 'NONE',  ( -3.491481338843133355E-15, 1.224646799147353207E-16, -1.000000000000000000 ) ) ;
#166 = CARTESIAN_POINT ( 'NONE',  ( -2.993073362951419146E-30, 2.999999999999987121, -8.572502821805553369E-16 ) ) ;
#167 = DIRECTION ( 'NONE',  ( -3.491481338843133355E-15, 1.224646799147353207E-16, -1.000000000000000000 ) ) ;
#168 = FACE_OUTER_BOUND ( 'NONE', #178, .T. ) ;
#169 = CC_DESIGN_PERSON_AND_ORGANIZATION_ASSIGNMENT ( #94, #141, ( #151 ) ) ;
#170 = UNCERTAINTY_MEASURE_WITH_UNIT (LENGTH_MEASURE( 1.000000000000000082E-05 ), #185, 'distance_accuracy_value', 'NONE');
#171 = EDGE_CURVE ( 'NONE', #202, #202, #138, .T. ) ;
#172 = PERSON_AND_ORGANIZATION_ROLE ( 'creator' ) ;
#173 = APPROVAL ( #124, 'UNSPECIFIED' ) ;
#174 = EDGE_LOOP ( 'NONE', ( #67 ) ) ;
#175 = DIRECTION ( 'NONE',  ( -3.491481338843133355E-15, 1.224646799147353207E-16, -1.000000000000000000 ) ) ;
#176 = CC_DESIGN_PERSON_AND_ORGANIZATION_ASSIGNMENT ( #45, #172, ( #43 ) ) ;
#177 = APPROVAL_PERSON_ORGANIZATION ( #46, #191, #83 ) ;
#178 = EDGE_LOOP ( 'NONE', ( #180 ) ) ;
#179 = SHAPE_DEFINITION_REPRESENTATION ( #190, #44 ) ;
#180 = ORIENTED_EDGE ( 'NONE', *, *, #34, .F. ) ;
#181 = CARTESIAN_POINT ( 'NONE',  ( 2.199633243471174140E-13, 2.499999999999986677, 63.00000000000000000 ) ) ;
#182 = DIRECTION ( 'NONE',  ( 4.275831445896958607E-31, 1.000000000000000000, 1.224646799147353207E-16 ) ) ;
#183 = LOCAL_TIME ( 16, 36, 20.00000000000000000, #158 ) ;
#184 = MANIFOLD_SOLID_BREP ( 'Corps-Déplacer/Copier1[2]', #84 ) ;
#185 =( LENGTH_UNIT ( ) NAMED_UNIT ( * ) SI_UNIT ( .MILLI., .METRE. ) );
#186 = DIRECTION ( 'NONE',  ( -4.275831445896958607E-31, -1.000000000000000000, -1.224646799147353207E-16 ) ) ;
#187 = FACE_OUTER_BOUND ( 'NONE', #196, .T. ) ;
#188 = AXIS2_PLACEMENT_3D ( 'NONE', #54, #153, #88 ) ;
#189 = ADVANCED_FACE ( 'NONE', ( #37 ), #120, .T. ) ;
#190 = PRODUCT_DEFINITION_SHAPE ( 'NONE', 'NONE',  #43 ) ;
#191 = APPROVAL ( #68, 'UNSPECIFIED' ) ;
#192 = COORDINATED_UNIVERSAL_TIME_OFFSET ( 1, 0, .AHEAD. ) ;
#193 =( GEOMETRIC_REPRESENTATION_CONTEXT ( 3 ) GLOBAL_UNCERTAINTY_ASSIGNED_CONTEXT ( ( #170 ) ) GLOBAL_UNIT_ASSIGNED_CONTEXT ( ( #185, #104, #56 ) ) REPRESENTATION_CONTEXT ( 'NONE', 'WORKASPACE' ) );
#194 = CARTESIAN_POINT ( 'NONE',  ( 2.199633243471174140E-13, -7.715274834628325378E-15, 63.00000000000000000 ) ) ;
#195 = APPROVAL_STATUS ( 'not_yet_approved' ) ;
#196 = EDGE_LOOP ( 'NONE', ( #97 ) ) ;
#197 = PERSON_AND_ORGANIZATION ( #3, #42 ) ;
#198 = CC_DESIGN_SECURITY_CLASSIFICATION ( #151, ( #31 ) ) ;
#199 = DIRECTION ( 'NONE',  ( 4.275831445896958607E-31, 1.000000000000000000, 1.224646799147353207E-16 ) ) ;
#200 = CARTESIAN_POINT ( 'NONE',  ( 5.586370142149013368E-14, 2.999999999999987121, 16.00000000000000000 ) ) ;
#201 = DIRECTION ( 'NONE',  ( -3.491481338843133355E-15, 1.224646799147353207E-16, -1.000000000000000000 ) ) ;
#202 = VERTEX_POINT ( 'NONE', #181 ) ;
#203 = FACE_OUTER_BOUND ( 'NONE', #33, .T. ) ;
ENDSEC;
END-ISO-10303-21;
