ISO-10303-21;
HEADER;
FILE_DESCRIPTION (( 'STEP AP203' ),
    '1' );
FILE_NAME ('966115.step',
    '2021-11-16T15:36:20',
    ( '' ),
    ( '' ),
    'SwSTEP 2.0',
    'SolidWorks 2019',
    '' );
FILE_SCHEMA (( 'CONFIG_CONTROL_DESIGN' ));
ENDSEC;

DATA;
#1 = APPROVAL_DATE_TIME ( #127, #9 ) ;
#2 = SHAPE_DEFINITION_REPRESENTATION ( #113, #132 ) ;
#3 = DESIGN_CONTEXT ( 'detailed design', #109, 'design' ) ;
#4 = CALENDAR_DATE ( 2021, 16, 11 ) ;
#5 = PERSON_AND_ORGANIZATION_ROLE ( 'creator' ) ;
#6 = AXIS2_PLACEMENT_3D ( 'NONE', #122, #153, #201 ) ;
#7 = EDGE_LOOP ( 'NONE', ( #167 ) ) ;
#8 = AXIS2_PLACEMENT_3D ( 'NONE', #158, #40, #96 ) ;
#9 = APPROVAL ( #77, 'UNSPECIFIED' ) ;
#10 = CC_DESIGN_APPROVAL ( #103, ( #166 ) ) ;
#11 = ORIENTED_EDGE ( 'NONE', *, *, #66, .F. ) ;
#12 = CARTESIAN_POINT ( 'NONE',  ( 4.888073874380386697E-14, -1.714505518806294638E-15, 14.00000000000000000 ) ) ;
#13 = CC_DESIGN_PERSON_AND_ORGANIZATION_ASSIGNMENT ( #38, #5, ( #83 ) ) ;
#14 = DIRECTION ( 'NONE',  ( 3.491481338843133355E-15, -1.224646799147353207E-16, 1.000000000000000000 ) ) ;
#15 = DIRECTION ( 'NONE',  ( -3.491481338843133355E-15, 1.224646799147353207E-16, -1.000000000000000000 ) ) ;
#16 = CARTESIAN_POINT ( 'NONE',  ( -6.413825538198578489E-31, 2.249667162261564385E-32, -1.836992644595870813E-16 ) ) ;
#17 = CARTESIAN_POINT ( 'NONE',  ( 4.888073874380386697E-14, -1.714505518806294638E-15, 14.00000000000000000 ) ) ;
#18 = AXIS2_PLACEMENT_3D ( 'NONE', #79, #85, #195 ) ;
#19 = APPROVAL_STATUS ( 'not_yet_approved' ) ;
#20 = DATE_AND_TIME ( #159, #194 ) ;
#21 = CC_DESIGN_APPROVAL ( #114, ( #187 ) ) ;
#22 = COORDINATED_UNIVERSAL_TIME_OFFSET ( 1, 0, .AHEAD. ) ;
#23 = DATE_TIME_ROLE ( 'classification_date' ) ;
#24 = AXIS2_PLACEMENT_3D ( 'NONE', #121, #14, #185 ) ;
#25 = ORIENTED_EDGE ( 'NONE', *, *, #136, .F. ) ;
#26 = COORDINATED_UNIVERSAL_TIME_OFFSET ( 1, 0, .AHEAD. ) ;
#27 = EDGE_LOOP ( 'NONE', ( #41 ) ) ;
#28 = EDGE_LOOP ( 'NONE', ( #102 ) ) ;
#29 = ORIENTED_EDGE ( 'NONE', *, *, #66, .T. ) ;
#30 = CARTESIAN_POINT ( 'NONE',  ( 0.0000000000000000000, 0.0000000000000000000, 0.0000000000000000000 ) ) ;
#31 = DIRECTION ( 'NONE',  ( -3.491481338843133355E-15, 1.224646799147353207E-16, -1.000000000000000000 ) ) ;
#32 = CC_DESIGN_PERSON_AND_ORGANIZATION_ASSIGNMENT ( #97, #176, ( #83 ) ) ;
#33 = VERTEX_POINT ( 'NONE', #46 ) ;
#34 = EDGE_CURVE ( 'NONE', #184, #184, #147, .T. ) ;
#35 = PRODUCT ( '966115', '966115', '', ( #112 ) ) ;
#36 = APPROVAL_ROLE ( '' ) ;
#37 = CLOSED_SHELL ( 'NONE', ( #106, #87, #75, #95 ) ) ;
#38 = PERSON_AND_ORGANIZATION ( #129, #82 ) ;
#39 = CC_DESIGN_SECURITY_CLASSIFICATION ( #187, ( #83 ) ) ;
#40 = DIRECTION ( 'NONE',  ( 0.0000000000000000000, 0.0000000000000000000, 1.000000000000000000 ) ) ;
#41 = ORIENTED_EDGE ( 'NONE', *, *, #62, .F. ) ;
#42 = CARTESIAN_POINT ( 'NONE',  ( 2.182175836776958284E-13, -7.654042494670957804E-15, 62.50000000000000000 ) ) ;
#43 = ORIENTED_EDGE ( 'NONE', *, *, #62, .T. ) ;
#44 = CIRCLE ( 'NONE', #125, 2.499999999999996891 ) ;
#45 = EDGE_LOOP ( 'NONE', ( #64 ) ) ;
#46 = CARTESIAN_POINT ( 'NONE',  ( 4.888073874380386697E-14, 2.499999999999995115, 14.00000000000000000 ) ) ;
#47 = CYLINDRICAL_SURFACE ( 'NONE', #111, 2.500000000000000000 ) ;
#48 = VERTEX_POINT ( 'NONE', #137 ) ;
#49 = ADVANCED_FACE ( 'NONE', ( #149 ), #193, .T. ) ;
#50 = DIRECTION ( 'NONE',  ( -3.491481338843133355E-15, 1.224646799147353207E-16, -1.000000000000000000 ) ) ;
#51 = DIRECTION ( 'NONE',  ( 0.0000000000000000000, 1.000000000000000000, 0.0000000000000000000 ) ) ;
#52 = LOCAL_TIME ( 16, 36, 20.00000000000000000, #53 ) ;
#53 = COORDINATED_UNIVERSAL_TIME_OFFSET ( 1, 0, .AHEAD. ) ;
#54 = CIRCLE ( 'NONE', #168, 2.499999999999995115 ) ;
#55 = APPLICATION_PROTOCOL_DEFINITION ( 'international standard', 'config_control_design', 1994, #88 ) ;
#56 = SECURITY_CLASSIFICATION_LEVEL ( 'unclassified' ) ;
#57 = CARTESIAN_POINT ( 'NONE',  ( 4.888073874380386697E-14, 1.874699728327317357E-32, 14.00000000000000000 ) ) ;
#58 = EDGE_LOOP ( 'NONE', ( #25 ) ) ;
#59 = DIRECTION ( 'NONE',  ( 0.0000000000000000000, 1.000000000000000000, 0.0000000000000000000 ) ) ;
#60 = CARTESIAN_POINT ( 'NONE',  ( -3.206912769099289244E-31, 1.124833581130782193E-32, -9.184963222979354063E-17 ) ) ;
#61 = CLOSED_SHELL ( 'NONE', ( #130, #189, #49 ) ) ;
#62 = EDGE_CURVE ( 'NONE', #69, #69, #198, .T. ) ;
#63 = LOCAL_TIME ( 16, 36, 20.00000000000000000, #22 ) ;
#64 = ORIENTED_EDGE ( 'NONE', *, *, #136, .T. ) ;
#65 = EDGE_LOOP ( 'NONE', ( #43 ) ) ;
#66 = EDGE_CURVE ( 'NONE', #48, #48, #177, .T. ) ;
#67 = DIRECTION ( 'NONE',  ( 0.0000000000000000000, 1.000000000000000000, 0.0000000000000000000 ) ) ;
#68 =( GEOMETRIC_REPRESENTATION_CONTEXT ( 3 ) GLOBAL_UNCERTAINTY_ASSIGNED_CONTEXT ( ( #98 ) ) GLOBAL_UNIT_ASSIGNED_CONTEXT ( ( #197, #199, #91 ) ) REPRESENTATION_CONTEXT ( 'NONE', 'WORKASPACE' ) );
#69 = VERTEX_POINT ( 'NONE', #202 ) ;
#70 = PLANE ( 'NONE',  #190 ) ;
#71 = FACE_OUTER_BOUND ( 'NONE', #28, .T. ) ;
#72 = FACE_BOUND ( 'NONE', #7, .T. ) ;
#73 = APPROVAL_PERSON_ORGANIZATION ( #188, #9, #144 ) ;
#74 = APPROVAL_ROLE ( '' ) ;
#75 = ADVANCED_FACE ( 'NONE', ( #104, #72 ), #115, .T. ) ;
#76 = PERSON_AND_ORGANIZATION ( #129, #82 ) ;
#77 = APPROVAL_STATUS ( 'not_yet_approved' ) ;
#78 = CALENDAR_DATE ( 2021, 16, 11 ) ;
#79 = CARTESIAN_POINT ( 'NONE',  ( 2.199633243471174140E-13, -7.715274834628325378E-15, 63.00000000000000000 ) ) ;
#80 = PERSON_AND_ORGANIZATION ( #129, #82 ) ;
#81 = AXIS2_PLACEMENT_3D ( 'NONE', #12, #31, #92 ) ;
#82 = ORGANIZATION ( 'UNSPECIFIED', 'UNSPECIFIED', '' ) ;
#83 = PRODUCT_DEFINITION_FORMATION_WITH_SPECIFIED_SOURCE ( 'ANY', '', #35, .NOT_KNOWN. ) ;
#84 = DIRECTION ( 'NONE',  ( 3.491481338843133355E-15, -1.224646799147353207E-16, 1.000000000000000000 ) ) ;
#85 = DIRECTION ( 'NONE',  ( -3.491481338843133355E-15, 1.224646799147353207E-16, -1.000000000000000000 ) ) ;
#86 = DIRECTION ( 'NONE',  ( 4.275831445896958607E-31, 1.000000000000000000, 1.224646799147353207E-16 ) ) ;
#87 = ADVANCED_FACE ( 'NONE', ( #141, #175 ), #47, .T. ) ;
#88 = APPLICATION_CONTEXT ( 'configuration controlled 3d designs of mechanical parts and assemblies' ) ;
#89 = CARTESIAN_POINT ( 'NONE',  ( 2.199633243471174140E-13, -7.715274834628325378E-15, 63.00000000000000000 ) ) ;
#90 = CYLINDRICAL_SURFACE ( 'NONE', #6, 2.499999999999996003 ) ;
#91 =( NAMED_UNIT ( * ) SI_UNIT ( $, .STERADIAN. ) SOLID_ANGLE_UNIT ( ) );
#92 = DIRECTION ( 'NONE',  ( 0.0000000000000000000, 1.000000000000000000, 0.0000000000000000000 ) ) ;
#93 = PERSON_AND_ORGANIZATION ( #129, #82 ) ;
#94 = COORDINATED_UNIVERSAL_TIME_OFFSET ( 1, 0, .AHEAD. ) ;
#95 = ADVANCED_FACE ( 'NONE', ( #172 ), #183, .F. ) ;
#96 = DIRECTION ( 'NONE',  ( 1.000000000000000000, 0.0000000000000000000, 0.0000000000000000000 ) ) ;
#97 = PERSON_AND_ORGANIZATION ( #129, #82 ) ;
#98 = UNCERTAINTY_MEASURE_WITH_UNIT (LENGTH_MEASURE( 1.000000000000000082E-05 ), #197, 'distance_accuracy_value', 'NONE');
#99 = EDGE_LOOP ( 'NONE', ( #29 ) ) ;
#100 = DATE_AND_TIME ( #78, #164 ) ;
#101 = PERSON_AND_ORGANIZATION_ROLE ( 'classification_officer' ) ;
#102 = ORIENTED_EDGE ( 'NONE', *, *, #119, .T. ) ;
#103 = APPROVAL ( #19, 'UNSPECIFIED' ) ;
#104 = FACE_OUTER_BOUND ( 'NONE', #27, .T. ) ;
#105 = DIRECTION ( 'NONE',  ( -4.275831445896958607E-31, -1.000000000000000000, -1.224646799147353207E-16 ) ) ;
#106 = ADVANCED_FACE ( 'NONE', ( #200 ), #154, .F. ) ;
#107 = FACE_OUTER_BOUND ( 'NONE', #99, .T. ) ;
#108 = AXIS2_PLACEMENT_3D ( 'NONE', #42, #148, #59 ) ;
#109 = APPLICATION_CONTEXT ( 'configuration controlled 3d designs of mechanical parts and assemblies' ) ;
#110 = PRODUCT_RELATED_PRODUCT_CATEGORY ( 'detail', '', ( #35 ) ) ;
#111 = AXIS2_PLACEMENT_3D ( 'NONE', #30, #139, #151 ) ;
#112 = MECHANICAL_CONTEXT ( 'NONE', #88, 'mechanical' ) ;
#113 = PRODUCT_DEFINITION_SHAPE ( 'NONE', 'NONE',  #166 ) ;
#114 = APPROVAL ( #192, 'UNSPECIFIED' ) ;
#115 = CONICAL_SURFACE ( 'NONE', #155, 2.000000000000003109, 0.7853981633974479459 ) ;
#116 = DATE_AND_TIME ( #179, #52 ) ;
#117 = MANIFOLD_SOLID_BREP ( 'Corps-Déplacer/Copier1[1]', #37 ) ;
#118 = MANIFOLD_SOLID_BREP ( 'Corps-Déplacer/Copier1[2]', #61 ) ;
#119 = EDGE_CURVE ( 'NONE', #182, #182, #54, .T. ) ;
#120 = DIRECTION ( 'NONE',  ( -3.491481338843133355E-15, 1.224646799147353207E-16, -1.000000000000000000 ) ) ;
#121 = CARTESIAN_POINT ( 'NONE',  ( 4.888073874380386697E-14, 1.874699728327317357E-32, 14.00000000000000000 ) ) ;
#122 = CARTESIAN_POINT ( 'NONE',  ( 0.0000000000000000000, 0.0000000000000000000, 0.0000000000000000000 ) ) ;
#123 = CARTESIAN_POINT ( 'NONE',  ( 4.275753076543797008E-31, 2.499999999999995115, 1.224624353272506412E-16 ) ) ;
#124 = DIRECTION ( 'NONE',  ( -3.491481338843133355E-15, 1.224646799147353207E-16, -1.000000000000000000 ) ) ;
#125 = AXIS2_PLACEMENT_3D ( 'NONE', #17, #15, #51 ) ;
#126 = APPLICATION_PROTOCOL_DEFINITION ( 'international standard', 'config_control_design', 1994, #109 ) ;
#127 = DATE_AND_TIME ( #4, #156 ) ;
#128 = CC_DESIGN_APPROVAL ( #9, ( #83 ) ) ;
#129 = PERSON ( 'UNSPECIFIED', 'UNSPECIFIED', 'UNSPECIFIED', ('UNSPECIFIED'), ('UNSPECIFIED'), ('UNSPECIFIED') ) ;
#130 = ADVANCED_FACE ( 'NONE', ( #71 ), #70, .F. ) ;
#131 = EDGE_LOOP ( 'NONE', ( #11 ) ) ;
#132 = ADVANCED_BREP_SHAPE_REPRESENTATION ( '966115', ( #117, #118, #8 ), #68 ) ;
#133 = EDGE_LOOP ( 'NONE', ( #163 ) ) ;
#134 = CARTESIAN_POINT ( 'NONE',  ( 2.199633243471174140E-13, 1.999999999999995337, 63.00000000000000000 ) ) ;
#135 = APPROVAL_PERSON_ORGANIZATION ( #160, #103, #74 ) ;
#136 = EDGE_CURVE ( 'NONE', #33, #33, #44, .T. ) ;
#137 = CARTESIAN_POINT ( 'NONE',  ( 4.888073874380386697E-14, 2.499999999999995115, 14.00000000000000000 ) ) ;
#138 = FACE_OUTER_BOUND ( 'NONE', #133, .T. ) ;
#139 = DIRECTION ( 'NONE',  ( -3.491481338843133355E-15, 1.224646799147353207E-16, -1.000000000000000000 ) ) ;
#140 = AXIS2_PLACEMENT_3D ( 'NONE', #171, #120, #86 ) ;
#141 = FACE_OUTER_BOUND ( 'NONE', #58, .T. ) ;
#142 = APPROVAL_DATE_TIME ( #20, #114 ) ;
#143 = COORDINATED_UNIVERSAL_TIME_OFFSET ( 1, 0, .AHEAD. ) ;
#144 = APPROVAL_ROLE ( '' ) ;
#145 = CC_DESIGN_DATE_AND_TIME_ASSIGNMENT ( #100, #165, ( #166 ) ) ;
#146 = EDGE_LOOP ( 'NONE', ( #169 ) ) ;
#147 = CIRCLE ( 'NONE', #18, 2.000000000000003109 ) ;
#148 = DIRECTION ( 'NONE',  ( -3.491481338843133355E-15, 1.224646799147353207E-16, -1.000000000000000000 ) ) ;
#149 = FACE_OUTER_BOUND ( 'NONE', #131, .T. ) ;
#150 = CC_DESIGN_PERSON_AND_ORGANIZATION_ASSIGNMENT ( #178, #101, ( #187 ) ) ;
#151 = DIRECTION ( 'NONE',  ( 4.275831445896958607E-31, 1.000000000000000000, 1.224646799147353207E-16 ) ) ;
#152 = DIRECTION ( 'NONE',  ( 4.275831445896958607E-31, 1.000000000000000000, 1.224646799147353207E-16 ) ) ;
#153 = DIRECTION ( 'NONE',  ( -3.491481338843133355E-15, 1.224646799147353207E-16, -1.000000000000000000 ) ) ;
#154 = PLANE ( 'NONE',  #24 ) ;
#155 = AXIS2_PLACEMENT_3D ( 'NONE', #89, #124, #67 ) ;
#156 = LOCAL_TIME ( 16, 36, 20.00000000000000000, #143 ) ;
#157 = PERSON_AND_ORGANIZATION_ROLE ( 'design_owner' ) ;
#158 = CARTESIAN_POINT ( 'NONE',  ( 0.0000000000000000000, 0.0000000000000000000, 0.0000000000000000000 ) ) ;
#159 = CALENDAR_DATE ( 2021, 16, 11 ) ;
#160 = PERSON_AND_ORGANIZATION ( #129, #82 ) ;
#161 = CALENDAR_DATE ( 2021, 16, 11 ) ;
#162 = DATE_AND_TIME ( #161, #63 ) ;
#163 = ORIENTED_EDGE ( 'NONE', *, *, #119, .F. ) ;
#164 = LOCAL_TIME ( 16, 36, 20.00000000000000000, #26 ) ;
#165 = DATE_TIME_ROLE ( 'creation_date' ) ;
#166 = PRODUCT_DEFINITION ( 'UNKNOWN', '', #83, #3 ) ;
#167 = ORIENTED_EDGE ( 'NONE', *, *, #34, .T. ) ;
#168 = AXIS2_PLACEMENT_3D ( 'NONE', #16, #50, #152 ) ;
#169 = ORIENTED_EDGE ( 'NONE', *, *, #34, .F. ) ;
#170 = CC_DESIGN_PERSON_AND_ORGANIZATION_ASSIGNMENT ( #93, #157, ( #35 ) ) ;
#171 = CARTESIAN_POINT ( 'NONE',  ( 2.199633243471174140E-13, 1.499759782661848029E-32, 63.00000000000000000 ) ) ;
#172 = FACE_OUTER_BOUND ( 'NONE', #146, .T. ) ;
#173 = CC_DESIGN_DATE_AND_TIME_ASSIGNMENT ( #162, #23, ( #187 ) ) ;
#174 = DIRECTION ( 'NONE',  ( 3.491481338843133355E-15, -1.224646799147353207E-16, 1.000000000000000000 ) ) ;
#175 = FACE_OUTER_BOUND ( 'NONE', #65, .T. ) ;
#176 = PERSON_AND_ORGANIZATION_ROLE ( 'design_supplier' ) ;
#177 = CIRCLE ( 'NONE', #81, 2.499999999999996891 ) ;
#178 = PERSON_AND_ORGANIZATION ( #129, #82 ) ;
#179 = CALENDAR_DATE ( 2021, 16, 11 ) ;
#180 = AXIS2_PLACEMENT_3D ( 'NONE', #57, #84, #181 ) ;
#181 = DIRECTION ( 'NONE',  ( -4.275831445896958607E-31, -1.000000000000000000, -1.224646799147353207E-16 ) ) ;
#182 = VERTEX_POINT ( 'NONE', #123 ) ;
#183 = PLANE ( 'NONE',  #140 ) ;
#184 = VERTEX_POINT ( 'NONE', #134 ) ;
#185 = DIRECTION ( 'NONE',  ( -4.275831445896958607E-31, -1.000000000000000000, -1.224646799147353207E-16 ) ) ;
#186 = CC_DESIGN_PERSON_AND_ORGANIZATION_ASSIGNMENT ( #80, #203, ( #166 ) ) ;
#187 = SECURITY_CLASSIFICATION ( '', '', #56 ) ;
#188 = PERSON_AND_ORGANIZATION ( #129, #82 ) ;
#189 = ADVANCED_FACE ( 'NONE', ( #138, #107 ), #90, .T. ) ;
#190 = AXIS2_PLACEMENT_3D ( 'NONE', #60, #174, #105 ) ;
#191 = APPROVAL_PERSON_ORGANIZATION ( #76, #114, #36 ) ;
#192 = APPROVAL_STATUS ( 'not_yet_approved' ) ;
#193 = PLANE ( 'NONE',  #180 ) ;
#194 = LOCAL_TIME ( 16, 36, 20.00000000000000000, #94 ) ;
#195 = DIRECTION ( 'NONE',  ( 0.0000000000000000000, 1.000000000000000000, 0.0000000000000000000 ) ) ;
#196 = APPROVAL_DATE_TIME ( #116, #103 ) ;
#197 =( LENGTH_UNIT ( ) NAMED_UNIT ( * ) SI_UNIT ( .MILLI., .METRE. ) );
#198 = CIRCLE ( 'NONE', #108, 2.500000000000003109 ) ;
#199 =( NAMED_UNIT ( * ) PLANE_ANGLE_UNIT ( ) SI_UNIT ( $, .RADIAN. ) );
#200 = FACE_OUTER_BOUND ( 'NONE', #45, .T. ) ;
#201 = DIRECTION ( 'NONE',  ( 4.275831445896958607E-31, 1.000000000000000000, 1.224646799147353207E-16 ) ) ;
#202 = CARTESIAN_POINT ( 'NONE',  ( 2.182175836776958284E-13, 2.499999999999995115, 62.50000000000000000 ) ) ;
#203 = PERSON_AND_ORGANIZATION_ROLE ( 'creator' ) ;
ENDSEC;
END-ISO-10303-21;
