ISO-10303-21;
HEADER;
FILE_DESCRIPTION (( 'STEP AP203' ),
    '1' );
FILE_NAME ('966107.step',
    '2021-11-16T15:36:19',
    ( '' ),
    ( '' ),
    'SwSTEP 2.0',
    'SolidWorks 2019',
    '' );
FILE_SCHEMA (( 'CONFIG_CONTROL_DESIGN' ));
ENDSEC;

DATA;
#1 = CC_DESIGN_APPROVAL ( #183, ( #68 ) ) ;
#2 = DIRECTION ( 'NONE',  ( -4.275831445896958607E-31, -1.000000000000000000, -1.224646799147353207E-16 ) ) ;
#3 = DESIGN_CONTEXT ( 'detailed design', #87, 'design' ) ;
#4 = CARTESIAN_POINT ( 'NONE',  ( 1.326762908760390423E-13, -4.653657836759941941E-15, 38.00000000000000000 ) ) ;
#5 = DIRECTION ( 'NONE',  ( -3.491481338843133355E-15, 1.224646799147353207E-16, -1.000000000000000000 ) ) ;
#6 = DIRECTION ( 'NONE',  ( 4.275831445896958607E-31, 1.000000000000000000, 1.224646799147353207E-16 ) ) ;
#7 = CARTESIAN_POINT ( 'NONE',  ( 1.316288464743861212E-13, -4.616918432785521081E-15, 37.69999999999999574 ) ) ;
#8 = DATE_AND_TIME ( #91, #13 ) ;
#9 = AXIS2_PLACEMENT_3D ( 'NONE', #93, #94, #154 ) ;
#10 = VERTEX_POINT ( 'NONE', #127 ) ;
#11 = AXIS2_PLACEMENT_3D ( 'NONE', #103, #84, #102 ) ;
#12 =( LENGTH_UNIT ( ) NAMED_UNIT ( * ) SI_UNIT ( .MILLI., .METRE. ) );
#13 = LOCAL_TIME ( 16, 36, 19.00000000000000000, #152 ) ;
#14 = ADVANCED_FACE ( 'NONE', ( #88, #48 ), #149, .T. ) ;
#15 = APPROVAL_STATUS ( 'not_yet_approved' ) ;
#16 = APPLICATION_CONTEXT ( 'configuration controlled 3d designs of mechanical parts and assemblies' ) ;
#17 = SHAPE_DEFINITION_REPRESENTATION ( #155, #37 ) ;
#18 = DATE_AND_TIME ( #175, #21 ) ;
#19 = AXIS2_PLACEMENT_3D ( 'NONE', #90, #29, #150 ) ;
#20 = EDGE_LOOP ( 'NONE', ( #138 ) ) ;
#21 = LOCAL_TIME ( 16, 36, 19.00000000000000000, #131 ) ;
#22 = ORIENTED_EDGE ( 'NONE', *, *, #190, .F. ) ;
#23 = PERSON_AND_ORGANIZATION_ROLE ( 'design_supplier' ) ;
#24 = DIRECTION ( 'NONE',  ( 0.0000000000000000000, 1.000000000000000000, 0.0000000000000000000 ) ) ;
#25 = CIRCLE ( 'NONE', #100, 1.499999999999996669 ) ;
#26 = LOCAL_TIME ( 16, 36, 19.00000000000000000, #144 ) ;
#27 = EDGE_LOOP ( 'NONE', ( #151 ) ) ;
#28 = ADVANCED_FACE ( 'NONE', ( #54 ), #105, .F. ) ;
#29 = DIRECTION ( 'NONE',  ( -3.491481338843133355E-15, 1.224646799147353207E-16, -1.000000000000000000 ) ) ;
#30 = CARTESIAN_POINT ( 'NONE',  ( 3.491481338843133355E-14, -1.224646799147353256E-15, 10.00000000000000000 ) ) ;
#31 = DATE_AND_TIME ( #124, #106 ) ;
#32 = PERSON_AND_ORGANIZATION_ROLE ( 'creator' ) ;
#33 = VERTEX_POINT ( 'NONE', #187 ) ;
#34 = PRODUCT ( '966107', '966107', '', ( #65 ) ) ;
#35 = APPLICATION_PROTOCOL_DEFINITION ( 'international standard', 'config_control_design', 1994, #16 ) ;
#36 = AXIS2_PLACEMENT_3D ( 'NONE', #59, #137, #119 ) ;
#37 = ADVANCED_BREP_SHAPE_REPRESENTATION ( '966107', ( #55, #57, #9 ), #53 ) ;
#38 = PERSON_AND_ORGANIZATION_ROLE ( 'classification_officer' ) ;
#39 = ORIENTED_EDGE ( 'NONE', *, *, #191, .T. ) ;
#40 = CALENDAR_DATE ( 2021, 16, 11 ) ;
#41 = FACE_OUTER_BOUND ( 'NONE', #122, .T. ) ;
#42 = APPROVAL_PERSON_ORGANIZATION ( #189, #183, #52 ) ;
#43 = SECURITY_CLASSIFICATION ( '', '', #159 ) ;
#44 = DIRECTION ( 'NONE',  ( -3.491481338843133355E-15, 1.224646799147353207E-16, -1.000000000000000000 ) ) ;
#45 = CC_DESIGN_DATE_AND_TIME_ASSIGNMENT ( #31, #111, ( #68 ) ) ;
#46 = FACE_OUTER_BOUND ( 'NONE', #193, .T. ) ;
#47 = DIRECTION ( 'NONE',  ( 3.491481338843133355E-15, -1.224646799147353207E-16, 1.000000000000000000 ) ) ;
#48 = FACE_BOUND ( 'NONE', #162, .T. ) ;
#49 = PERSON_AND_ORGANIZATION ( #121, #129 ) ;
#50 = PERSON_AND_ORGANIZATION ( #121, #129 ) ;
#51 = PRODUCT_RELATED_PRODUCT_CATEGORY ( 'detail', '', ( #34 ) ) ;
#52 = APPROVAL_ROLE ( '' ) ;
#53 =( GEOMETRIC_REPRESENTATION_CONTEXT ( 3 ) GLOBAL_UNCERTAINTY_ASSIGNED_CONTEXT ( ( #181 ) ) GLOBAL_UNIT_ASSIGNED_CONTEXT ( ( #12, #157, #81 ) ) REPRESENTATION_CONTEXT ( 'NONE', 'WORKASPACE' ) );
#54 = FACE_OUTER_BOUND ( 'NONE', #20, .T. ) ;
#55 = MANIFOLD_SOLID_BREP ( 'Corps-Déplacer/Copier1[1]', #115 ) ;
#56 = PLANE ( 'NONE',  #195 ) ;
#57 = MANIFOLD_SOLID_BREP ( 'Corps-Déplacer/Copier1[2]', #153 ) ;
#58 = CARTESIAN_POINT ( 'NONE',  ( 3.491481338843133355E-14, 1.124819836996386500E-32, 10.00000000000000000 ) ) ;
#59 = CARTESIAN_POINT ( 'NONE',  ( 1.326762908760390423E-13, 8.998558695971053960E-33, 38.00000000000000000 ) ) ;
#60 = CIRCLE ( 'NONE', #110, 1.499999999999993561 ) ;
#61 = ADVANCED_FACE ( 'NONE', ( #164 ), #182, .F. ) ;
#62 = DATE_AND_TIME ( #171, #101 ) ;
#63 = PERSON_AND_ORGANIZATION ( #121, #129 ) ;
#64 = ADVANCED_FACE ( 'NONE', ( #197 ), #134, .F. ) ;
#65 = MECHANICAL_CONTEXT ( 'NONE', #16, 'mechanical' ) ;
#66 = EDGE_LOOP ( 'NONE', ( #22 ) ) ;
#67 = DATE_TIME_ROLE ( 'classification_date' ) ;
#68 = PRODUCT_DEFINITION ( 'UNKNOWN', '', #74, #3 ) ;
#69 = AXIS2_PLACEMENT_3D ( 'NONE', #58, #47, #2 ) ;
#70 = FACE_OUTER_BOUND ( 'NONE', #83, .T. ) ;
#71 = CC_DESIGN_PERSON_AND_ORGANIZATION_ASSIGNMENT ( #139, #186, ( #74 ) ) ;
#72 = FACE_OUTER_BOUND ( 'NONE', #146, .T. ) ;
#73 = FACE_OUTER_BOUND ( 'NONE', #27, .T. ) ;
#74 = PRODUCT_DEFINITION_FORMATION_WITH_SPECIFIED_SOURCE ( 'ANY', '', #34, .NOT_KNOWN. ) ;
#75 = ORIENTED_EDGE ( 'NONE', *, *, #190, .T. ) ;
#76 = DIRECTION ( 'NONE',  ( -3.491481338843133355E-15, 1.224646799147353207E-16, -1.000000000000000000 ) ) ;
#77 = APPROVAL_DATE_TIME ( #8, #143 ) ;
#78 = PERSON_AND_ORGANIZATION_ROLE ( 'design_owner' ) ;
#79 = CC_DESIGN_PERSON_AND_ORGANIZATION_ASSIGNMENT ( #49, #23, ( #74 ) ) ;
#80 = APPLICATION_PROTOCOL_DEFINITION ( 'international standard', 'config_control_design', 1994, #87 ) ;
#81 =( NAMED_UNIT ( * ) SI_UNIT ( $, .STERADIAN. ) SOLID_ANGLE_UNIT ( ) );
#82 = DATE_AND_TIME ( #40, #26 ) ;
#83 = EDGE_LOOP ( 'NONE', ( #75 ) ) ;
#84 = DIRECTION ( 'NONE',  ( 3.491481338843133355E-15, -1.224646799147353207E-16, 1.000000000000000000 ) ) ;
#85 = DIRECTION ( 'NONE',  ( -3.491481338843133355E-15, 1.224646799147353207E-16, -1.000000000000000000 ) ) ;
#86 = CARTESIAN_POINT ( 'NONE',  ( 1.326762908760390423E-13, -4.653657836759941941E-15, 38.00000000000000000 ) ) ;
#87 = APPLICATION_CONTEXT ( 'configuration controlled 3d designs of mechanical parts and assemblies' ) ;
#88 = FACE_OUTER_BOUND ( 'NONE', #66, .T. ) ;
#89 = APPROVAL_PERSON_ORGANIZATION ( #192, #113, #142 ) ;
#90 = CARTESIAN_POINT ( 'NONE',  ( 3.491481338843133355E-14, -1.224646799147353256E-15, 10.00000000000000000 ) ) ;
#91 = CALENDAR_DATE ( 2021, 16, 11 ) ;
#92 = COORDINATED_UNIVERSAL_TIME_OFFSET ( 1, 0, .AHEAD. ) ;
#93 = CARTESIAN_POINT ( 'NONE',  ( 0.0000000000000000000, 0.0000000000000000000, 0.0000000000000000000 ) ) ;
#94 = DIRECTION ( 'NONE',  ( 0.0000000000000000000, 0.0000000000000000000, 1.000000000000000000 ) ) ;
#95 = VERTEX_POINT ( 'NONE', #140 ) ;
#96 = CC_DESIGN_APPROVAL ( #143, ( #74 ) ) ;
#97 = CC_DESIGN_PERSON_AND_ORGANIZATION_ASSIGNMENT ( #160, #38, ( #43 ) ) ;
#98 = EDGE_CURVE ( 'NONE', #141, #141, #202, .T. ) ;
#99 = ORIENTED_EDGE ( 'NONE', *, *, #156, .F. ) ;
#100 = AXIS2_PLACEMENT_3D ( 'NONE', #7, #76, #166 ) ;
#101 = LOCAL_TIME ( 16, 36, 19.00000000000000000, #107 ) ;
#102 = DIRECTION ( 'NONE',  ( -4.275831445896958607E-31, -1.000000000000000000, -1.224646799147353207E-16 ) ) ;
#103 = CARTESIAN_POINT ( 'NONE',  ( -4.275811853558651348E-31, 1.499752910594655314E-32, -1.224641187678636516E-16 ) ) ;
#104 = ADVANCED_FACE ( 'NONE', ( #72, #73 ), #116, .T. ) ;
#105 = PLANE ( 'NONE',  #36 ) ;
#106 = LOCAL_TIME ( 16, 36, 19.00000000000000000, #92 ) ;
#107 = COORDINATED_UNIVERSAL_TIME_OFFSET ( 1, 0, .AHEAD. ) ;
#108 = CARTESIAN_POINT ( 'NONE',  ( 1.316288464743861212E-13, 1.499999999999992228, 37.69999999999999574 ) ) ;
#109 = DIRECTION ( 'NONE',  ( 0.0000000000000000000, 1.000000000000000000, 0.0000000000000000000 ) ) ;
#110 = AXIS2_PLACEMENT_3D ( 'NONE', #30, #44, #198 ) ;
#111 = DATE_TIME_ROLE ( 'creation_date' ) ;
#112 = APPROVAL_STATUS ( 'not_yet_approved' ) ;
#113 = APPROVAL ( #15, 'UNSPECIFIED' ) ;
#114 = ADVANCED_FACE ( 'NONE', ( #46, #70 ), #196, .T. ) ;
#115 = CLOSED_SHELL ( 'NONE', ( #64, #114, #14, #28 ) ) ;
#116 = CYLINDRICAL_SURFACE ( 'NONE', #117, 1.499999999999992895 ) ;
#117 = AXIS2_PLACEMENT_3D ( 'NONE', #194, #85, #118 ) ;
#118 = DIRECTION ( 'NONE',  ( 4.275831445896958607E-31, 1.000000000000000000, 1.224646799147353207E-16 ) ) ;
#119 = DIRECTION ( 'NONE',  ( 4.275831445896958607E-31, 1.000000000000000000, 1.224646799147353207E-16 ) ) ;
#120 = EDGE_LOOP ( 'NONE', ( #148 ) ) ;
#121 = PERSON ( 'UNSPECIFIED', 'UNSPECIFIED', 'UNSPECIFIED', ('UNSPECIFIED'), ('UNSPECIFIED'), ('UNSPECIFIED') ) ;
#122 = EDGE_LOOP ( 'NONE', ( #99 ) ) ;
#123 = PERSON_AND_ORGANIZATION ( #121, #129 ) ;
#124 = CALENDAR_DATE ( 2021, 16, 11 ) ;
#125 = APPROVAL_STATUS ( 'not_yet_approved' ) ;
#126 = AXIS2_PLACEMENT_3D ( 'NONE', #4, #133, #24 ) ;
#127 = CARTESIAN_POINT ( 'NONE',  ( 3.491481338843133355E-14, 1.499999999999992228, 10.00000000000000000 ) ) ;
#128 = ADVANCED_FACE ( 'NONE', ( #41 ), #56, .T. ) ;
#129 = ORGANIZATION ( 'UNSPECIFIED', 'UNSPECIFIED', '' ) ;
#130 = CC_DESIGN_APPROVAL ( #113, ( #43 ) ) ;
#131 = COORDINATED_UNIVERSAL_TIME_OFFSET ( 1, 0, .AHEAD. ) ;
#132 = CC_DESIGN_PERSON_AND_ORGANIZATION_ASSIGNMENT ( #50, #78, ( #34 ) ) ;
#133 = DIRECTION ( 'NONE',  ( -3.491481338843133355E-15, 1.224646799147353207E-16, -1.000000000000000000 ) ) ;
#134 = PLANE ( 'NONE',  #69 ) ;
#135 = CIRCLE ( 'NONE', #168, 1.199999999999996847 ) ;
#136 = DIRECTION ( 'NONE',  ( -3.491481338843133355E-15, 1.224646799147353207E-16, -1.000000000000000000 ) ) ;
#137 = DIRECTION ( 'NONE',  ( -3.491481338843133355E-15, 1.224646799147353207E-16, -1.000000000000000000 ) ) ;
#138 = ORIENTED_EDGE ( 'NONE', *, *, #191, .F. ) ;
#139 = PERSON_AND_ORGANIZATION ( #121, #129 ) ;
#140 = CARTESIAN_POINT ( 'NONE',  ( 3.491481338843133355E-14, 1.499999999999992228, 10.00000000000000000 ) ) ;
#141 = VERTEX_POINT ( 'NONE', #172 ) ;
#142 = APPROVAL_ROLE ( '' ) ;
#143 = APPROVAL ( #125, 'UNSPECIFIED' ) ;
#144 = COORDINATED_UNIVERSAL_TIME_OFFSET ( 1, 0, .AHEAD. ) ;
#145 = CC_DESIGN_DATE_AND_TIME_ASSIGNMENT ( #82, #67, ( #43 ) ) ;
#146 = EDGE_LOOP ( 'NONE', ( #163 ) ) ;
#147 = DIRECTION ( 'NONE',  ( 3.491481338843133355E-15, -1.224646799147353207E-16, 1.000000000000000000 ) ) ;
#148 = ORIENTED_EDGE ( 'NONE', *, *, #177, .T. ) ;
#149 = CONICAL_SURFACE ( 'NONE', #126, 1.199999999999996847, 0.7853981633974453924 ) ;
#150 = DIRECTION ( 'NONE',  ( 0.0000000000000000000, 1.000000000000000000, 0.0000000000000000000 ) ) ;
#151 = ORIENTED_EDGE ( 'NONE', *, *, #156, .T. ) ;
#152 = COORDINATED_UNIVERSAL_TIME_OFFSET ( 1, 0, .AHEAD. ) ;
#153 = CLOSED_SHELL ( 'NONE', ( #61, #104, #128 ) ) ;
#154 = DIRECTION ( 'NONE',  ( 1.000000000000000000, 0.0000000000000000000, 0.0000000000000000000 ) ) ;
#155 = PRODUCT_DEFINITION_SHAPE ( 'NONE', 'NONE',  #68 ) ;
#156 = EDGE_CURVE ( 'NONE', #10, #10, #60, .T. ) ;
#157 =( NAMED_UNIT ( * ) PLANE_ANGLE_UNIT ( ) SI_UNIT ( $, .RADIAN. ) );
#158 = AXIS2_PLACEMENT_3D ( 'NONE', #169, #178, #185 ) ;
#159 = SECURITY_CLASSIFICATION_LEVEL ( 'unclassified' ) ;
#160 = PERSON_AND_ORGANIZATION ( #121, #129 ) ;
#161 = EDGE_LOOP ( 'NONE', ( #176 ) ) ;
#162 = EDGE_LOOP ( 'NONE', ( #39 ) ) ;
#163 = ORIENTED_EDGE ( 'NONE', *, *, #98, .F. ) ;
#164 = FACE_OUTER_BOUND ( 'NONE', #161, .T. ) ;
#165 = CC_DESIGN_PERSON_AND_ORGANIZATION_ASSIGNMENT ( #123, #32, ( #68 ) ) ;
#166 = DIRECTION ( 'NONE',  ( 0.0000000000000000000, 1.000000000000000000, 0.0000000000000000000 ) ) ;
#167 = CARTESIAN_POINT ( 'NONE',  ( 3.491481338843133355E-14, 1.124819836996386500E-32, 10.00000000000000000 ) ) ;
#168 = AXIS2_PLACEMENT_3D ( 'NONE', #86, #5, #109 ) ;
#169 = CARTESIAN_POINT ( 'NONE',  ( 0.0000000000000000000, 0.0000000000000000000, 0.0000000000000000000 ) ) ;
#170 = APPROVAL_DATE_TIME ( #62, #183 ) ;
#171 = CALENDAR_DATE ( 2021, 16, 11 ) ;
#172 = CARTESIAN_POINT ( 'NONE',  ( -2.137876538271896752E-31, 1.499999999999992228, -6.123121766362529595E-17 ) ) ;
#173 = APPROVAL_ROLE ( '' ) ;
#174 = APPROVAL_DATE_TIME ( #18, #113 ) ;
#175 = CALENDAR_DATE ( 2021, 16, 11 ) ;
#176 = ORIENTED_EDGE ( 'NONE', *, *, #98, .T. ) ;
#177 = EDGE_CURVE ( 'NONE', #95, #95, #184, .T. ) ;
#178 = DIRECTION ( 'NONE',  ( -3.491481338843133355E-15, 1.224646799147353207E-16, -1.000000000000000000 ) ) ;
#179 = DIRECTION ( 'NONE',  ( -4.275831445896958607E-31, -1.000000000000000000, -1.224646799147353207E-16 ) ) ;
#180 = CARTESIAN_POINT ( 'NONE',  ( -8.551623707117302695E-31, 2.999505821189310629E-32, -2.449282375357273033E-16 ) ) ;
#181 = UNCERTAINTY_MEASURE_WITH_UNIT (LENGTH_MEASURE( 1.000000000000000082E-05 ), #12, 'distance_accuracy_value', 'NONE');
#182 = PLANE ( 'NONE',  #11 ) ;
#183 = APPROVAL ( #112, 'UNSPECIFIED' ) ;
#184 = CIRCLE ( 'NONE', #19, 1.499999999999993561 ) ;
#185 = DIRECTION ( 'NONE',  ( 4.275831445896958607E-31, 1.000000000000000000, 1.224646799147353207E-16 ) ) ;
#186 = PERSON_AND_ORGANIZATION_ROLE ( 'creator' ) ;
#187 = CARTESIAN_POINT ( 'NONE',  ( 1.326762908760390423E-13, 1.199999999999992406, 38.00000000000000000 ) ) ;
#188 = APPROVAL_PERSON_ORGANIZATION ( #63, #143, #173 ) ;
#189 = PERSON_AND_ORGANIZATION ( #121, #129 ) ;
#190 = EDGE_CURVE ( 'NONE', #200, #200, #25, .T. ) ;
#191 = EDGE_CURVE ( 'NONE', #33, #33, #135, .T. ) ;
#192 = PERSON_AND_ORGANIZATION ( #121, #129 ) ;
#193 = EDGE_LOOP ( 'NONE', ( #203 ) ) ;
#194 = CARTESIAN_POINT ( 'NONE',  ( 0.0000000000000000000, 0.0000000000000000000, 0.0000000000000000000 ) ) ;
#195 = AXIS2_PLACEMENT_3D ( 'NONE', #167, #147, #179 ) ;
#196 = CYLINDRICAL_SURFACE ( 'NONE', #158, 1.499999999999995337 ) ;
#197 = FACE_OUTER_BOUND ( 'NONE', #120, .T. ) ;
#198 = DIRECTION ( 'NONE',  ( 0.0000000000000000000, 1.000000000000000000, 0.0000000000000000000 ) ) ;
#199 = CC_DESIGN_SECURITY_CLASSIFICATION ( #43, ( #74 ) ) ;
#200 = VERTEX_POINT ( 'NONE', #108 ) ;
#201 = AXIS2_PLACEMENT_3D ( 'NONE', #180, #136, #6 ) ;
#202 = CIRCLE ( 'NONE', #201, 1.499999999999992228 ) ;
#203 = ORIENTED_EDGE ( 'NONE', *, *, #177, .F. ) ;
ENDSEC;
END-ISO-10303-21;
