ISO-10303-21;
HEADER;
FILE_DESCRIPTION (( 'STEP AP203' ),
    '1' );
FILE_NAME ('966106.step',
    '2021-11-16T15:36:19',
    ( '' ),
    ( '' ),
    'SwSTEP 2.0',
    'SolidWorks 2019',
    '' );
FILE_SCHEMA (( 'CONFIG_CONTROL_DESIGN' ));
ENDSEC;

DATA;
#1 = DIRECTION ( 'NONE',  ( 3.491481338843133355E-15, -1.227517819005651059E-16, 1.000000000000000000 ) ) ;
#2 = CARTESIAN_POINT ( 'NONE',  ( 1.326762908760390423E-13, -4.653657836759941941E-15, 38.00000000000000000 ) ) ;
#3 = APPLICATION_CONTEXT ( 'configuration controlled 3d designs of mechanical parts and assemblies' ) ;
#4 = CARTESIAN_POINT ( 'NONE',  ( 2.444036937190193349E-14, 1.124819836996386774E-32, 7.000000000000000000 ) ) ;
#5 = APPROVAL_STATUS ( 'not_yet_approved' ) ;
#6 = DATE_TIME_ROLE ( 'creation_date' ) ;
#7 = DIRECTION ( 'NONE',  ( -4.275831445896958607E-31, -1.000000000000000000, -1.224646799147353207E-16 ) ) ;
#8 = PERSON_AND_ORGANIZATION_ROLE ( 'creator' ) ;
#9 = COORDINATED_UNIVERSAL_TIME_OFFSET ( 1, 0, .AHEAD. ) ;
#10 = ADVANCED_FACE ( 'NONE', ( #76 ), #89, .F. ) ;
#11 = ADVANCED_FACE ( 'NONE', ( #171 ), #74, .T. ) ;
#12 = FACE_BOUND ( 'NONE', #115, .T. ) ;
#13 = ADVANCED_BREP_SHAPE_REPRESENTATION ( '966106', ( #156, #81, #67 ), #40 ) ;
#14 = DIRECTION ( 'NONE',  ( 0.0000000000000000000, 0.0000000000000000000, 1.000000000000000000 ) ) ;
#15 = CC_DESIGN_PERSON_AND_ORGANIZATION_ASSIGNMENT ( #78, #43, ( #189 ) ) ;
#16 = CARTESIAN_POINT ( 'NONE',  ( 2.755836190664958274E-14, 1.499999999999994671, 7.893028554974538480 ) ) ;
#17 = EDGE_LOOP ( 'NONE', ( #23 ) ) ;
#18 = FACE_OUTER_BOUND ( 'NONE', #22, .T. ) ;
#19 = DATE_AND_TIME ( #133, #112 ) ;
#20 = SECURITY_CLASSIFICATION_LEVEL ( 'unclassified' ) ;
#21 = ORGANIZATION ( 'UNSPECIFIED', 'UNSPECIFIED', '' ) ;
#22 = EDGE_LOOP ( 'NONE', ( #63 ) ) ;
#23 = ORIENTED_EDGE ( 'NONE', *, *, #105, .T. ) ;
#24 = EDGE_LOOP ( 'NONE', ( #37 ) ) ;
#25 = AXIS2_PLACEMENT_3D ( 'NONE', #4, #198, #136 ) ;
#26 = APPROVAL_PERSON_ORGANIZATION ( #135, #185, #201 ) ;
#27 = ORIENTED_EDGE ( 'NONE', *, *, #179, .F. ) ;
#28 = CARTESIAN_POINT ( 'NONE',  ( 1.326762908760390423E-13, -4.653657836759941941E-15, 38.00000000000000000 ) ) ;
#29 = APPROVAL_PERSON_ORGANIZATION ( #62, #70, #57 ) ;
#30 = DIRECTION ( 'NONE',  ( -3.491481338843133355E-15, 1.224646799147353207E-16, -1.000000000000000000 ) ) ;
#31 = EDGE_CURVE ( 'NONE', #172, #172, #166, .T. ) ;
#32 = CARTESIAN_POINT ( 'NONE',  ( 2.444036937190193033E-14, -8.592624733039555931E-16, 6.999999999999999112 ) ) ;
#33 = APPLICATION_PROTOCOL_DEFINITION ( 'international standard', 'config_control_design', 1994, #3 ) ;
#34 = APPROVAL ( #5, 'UNSPECIFIED' ) ;
#35 =( NAMED_UNIT ( * ) PLANE_ANGLE_UNIT ( ) SI_UNIT ( $, .RADIAN. ) );
#36 = AXIS2_PLACEMENT_3D ( 'NONE', #131, #55, #83 ) ;
#37 = ORIENTED_EDGE ( 'NONE', *, *, #31, .F. ) ;
#38 = CARTESIAN_POINT ( 'NONE',  ( -6.413731847436034514E-31, 0.0000000000000000000, -1.836965810494968570E-16 ) ) ;
#39 = UNCERTAINTY_MEASURE_WITH_UNIT (LENGTH_MEASURE( 1.000000000000000082E-05 ), #108, 'distance_accuracy_value', 'NONE');
#40 =( GEOMETRIC_REPRESENTATION_CONTEXT ( 3 ) GLOBAL_UNCERTAINTY_ASSIGNED_CONTEXT ( ( #39 ) ) GLOBAL_UNIT_ASSIGNED_CONTEXT ( ( #108, #35, #153 ) ) REPRESENTATION_CONTEXT ( 'NONE', 'WORKASPACE' ) );
#41 = ORIENTED_EDGE ( 'NONE', *, *, #79, .F. ) ;
#42 = APPROVAL_STATUS ( 'not_yet_approved' ) ;
#43 = PERSON_AND_ORGANIZATION_ROLE ( 'design_supplier' ) ;
#44 = TOROIDAL_SURFACE ( 'NONE', #139, 9.449999999999999289, 8.000000000000000000 ) ;
#45 = LOCAL_TIME ( 16, 36, 19.00000000000000000, #100 ) ;
#46 = ORIENTED_EDGE ( 'NONE', *, *, #117, .F. ) ;
#47 = CONICAL_SURFACE ( 'NONE', #162, 1.199999999999996847, 0.7853981633974453924 ) ;
#48 = ADVANCED_FACE ( 'NONE', ( #18 ), #87, .F. ) ;
#49 = CARTESIAN_POINT ( 'NONE',  ( 2.444036937190193033E-14, -8.592624733039555931E-16, 6.999999999999999112 ) ) ;
#50 = DIRECTION ( 'NONE',  ( -4.285855558155652404E-31, -1.000000000000000000, -1.227517819005651059E-16 ) ) ;
#51 = CYLINDRICAL_SURFACE ( 'NONE', #111, 1.499999999999994893 ) ;
#52 = CARTESIAN_POINT ( 'NONE',  ( 2.444036937190193033E-14, -1.450000000000001732, 6.999999999999999112 ) ) ;
#53 = DIRECTION ( 'NONE',  ( 0.0000000000000000000, 1.000000000000000000, 0.0000000000000000000 ) ) ;
#54 = CIRCLE ( 'NONE', #123, 1.199999999999996847 ) ;
#55 = DIRECTION ( 'NONE',  ( -3.491481338843133355E-15, 1.224646799147353207E-16, -1.000000000000000000 ) ) ;
#56 = EDGE_LOOP ( 'NONE', ( #98 ) ) ;
#57 = APPROVAL_ROLE ( '' ) ;
#58 = EDGE_LOOP ( 'NONE', ( #41 ) ) ;
#59 = APPROVAL_ROLE ( '' ) ;
#60 = CC_DESIGN_PERSON_AND_ORGANIZATION_ASSIGNMENT ( #114, #137, ( #189 ) ) ;
#61 = AXIS2_PLACEMENT_3D ( 'NONE', #158, #214, #7 ) ;
#62 = PERSON_AND_ORGANIZATION ( #142, #21 ) ;
#63 = ORIENTED_EDGE ( 'NONE', *, *, #160, .F. ) ;
#64 = CIRCLE ( 'NONE', #91, 1.499999999999996669 ) ;
#65 = DIRECTION ( 'NONE',  ( -4.346727293177451442E-31, -1.000000000000000000, -1.227517819005651059E-16 ) ) ;
#66 = CIRCLE ( 'NONE', #197, 1.449999999999999067 ) ;
#67 = AXIS2_PLACEMENT_3D ( 'NONE', #169, #14, #85 ) ;
#68 = DIRECTION ( 'NONE',  ( 3.491481338843133355E-15, -1.227517819005651059E-16, 1.000000000000000000 ) ) ;
#69 = FACE_OUTER_BOUND ( 'NONE', #58, .T. ) ;
#70 = APPROVAL ( #42, 'UNSPECIFIED' ) ;
#71 = COORDINATED_UNIVERSAL_TIME_OFFSET ( 1, 0, .AHEAD. ) ;
#72 = AXIS2_PLACEMENT_3D ( 'NONE', #38, #207, #50 ) ;
#73 = PERSON_AND_ORGANIZATION_ROLE ( 'design_owner' ) ;
#74 = PLANE ( 'NONE',  #25 ) ;
#75 = CALENDAR_DATE ( 2021, 16, 11 ) ;
#76 = FACE_OUTER_BOUND ( 'NONE', #193, .T. ) ;
#77 = AXIS2_PLACEMENT_3D ( 'NONE', #49, #1, #206 ) ;
#78 = PERSON_AND_ORGANIZATION ( #142, #21 ) ;
#79 = EDGE_CURVE ( 'NONE', #99, #99, #66, .T. ) ;
#80 = DIRECTION ( 'NONE',  ( 3.491481338843133355E-15, -1.227517819005651059E-16, 1.000000000000000000 ) ) ;
#81 = MANIFOLD_SOLID_BREP ( 'Corps-Déplacer/Copier1[2]', #106 ) ;
#82 = DIRECTION ( 'NONE',  ( 0.0000000000000000000, -1.000000000000000000, 0.0000000000000000000 ) ) ;
#83 = DIRECTION ( 'NONE',  ( 4.275831445896958607E-31, 1.000000000000000000, 1.224646799147353207E-16 ) ) ;
#84 = DIRECTION ( 'NONE',  ( -4.275831445896958607E-31, -1.000000000000000000, -1.224646799147353207E-16 ) ) ;
#85 = DIRECTION ( 'NONE',  ( 1.000000000000000000, 0.0000000000000000000, 0.0000000000000000000 ) ) ;
#86 = VERTEX_POINT ( 'NONE', #155 ) ;
#87 = PLANE ( 'NONE',  #36 ) ;
#88 = PERSON_AND_ORGANIZATION ( #142, #21 ) ;
#89 = PLANE ( 'NONE',  #61 ) ;
#90 = DIRECTION ( 'NONE',  ( -3.491481338843133355E-15, 1.224646799147353207E-16, -1.000000000000000000 ) ) ;
#91 = AXIS2_PLACEMENT_3D ( 'NONE', #219, #30, #217 ) ;
#92 = APPROVAL_PERSON_ORGANIZATION ( #88, #34, #59 ) ;
#93 = CC_DESIGN_PERSON_AND_ORGANIZATION_ASSIGNMENT ( #127, #73, ( #150 ) ) ;
#94 = FACE_OUTER_BOUND ( 'NONE', #17, .T. ) ;
#95 = DIRECTION ( 'NONE',  ( 3.491481338843133355E-15, -1.224646799147353207E-16, 1.000000000000000000 ) ) ;
#96 = ADVANCED_FACE ( 'NONE', ( #220, #12 ), #47, .T. ) ;
#97 = AXIS2_PLACEMENT_3D ( 'NONE', #154, #129, #173 ) ;
#98 = ORIENTED_EDGE ( 'NONE', *, *, #31, .T. ) ;
#99 = VERTEX_POINT ( 'NONE', #125 ) ;
#100 = COORDINATED_UNIVERSAL_TIME_OFFSET ( 1, 0, .AHEAD. ) ;
#101 = EDGE_LOOP ( 'NONE', ( #157 ) ) ;
#102 = APPROVAL_DATE_TIME ( #177, #34 ) ;
#103 = CC_DESIGN_PERSON_AND_ORGANIZATION_ASSIGNMENT ( #178, #8, ( #134 ) ) ;
#104 = DATE_AND_TIME ( #75, #122 ) ;
#105 = EDGE_CURVE ( 'NONE', #209, #209, #64, .T. ) ;
#106 = CLOSED_SHELL ( 'NONE', ( #11, #205, #183 ) ) ;
#107 = ADVANCED_FACE ( 'NONE', ( #146, #221 ), #44, .F. ) ;
#108 =( LENGTH_UNIT ( ) NAMED_UNIT ( * ) SI_UNIT ( .MILLI., .METRE. ) );
#109 = CC_DESIGN_PERSON_AND_ORGANIZATION_ASSIGNMENT ( #216, #138, ( #126 ) ) ;
#110 = FACE_OUTER_BOUND ( 'NONE', #144, .T. ) ;
#111 = AXIS2_PLACEMENT_3D ( 'NONE', #168, #128, #149 ) ;
#112 = LOCAL_TIME ( 16, 36, 19.00000000000000000, #71 ) ;
#113 = FACE_OUTER_BOUND ( 'NONE', #24, .T. ) ;
#114 = PERSON_AND_ORGANIZATION ( #142, #21 ) ;
#115 = EDGE_LOOP ( 'NONE', ( #190 ) ) ;
#116 = EDGE_LOOP ( 'NONE', ( #118 ) ) ;
#117 = EDGE_CURVE ( 'NONE', #175, #175, #147, .T. ) ;
#118 = ORIENTED_EDGE ( 'NONE', *, *, #117, .T. ) ;
#119 = CALENDAR_DATE ( 2021, 16, 11 ) ;
#120 = APPLICATION_PROTOCOL_DEFINITION ( 'international standard', 'config_control_design', 1994, #163 ) ;
#121 = CALENDAR_DATE ( 2021, 16, 11 ) ;
#122 = LOCAL_TIME ( 16, 36, 19.00000000000000000, #192 ) ;
#123 = AXIS2_PLACEMENT_3D ( 'NONE', #2, #170, #53 ) ;
#124 = VERTEX_POINT ( 'NONE', #204 ) ;
#125 = CARTESIAN_POINT ( 'NONE',  ( -1.691860413684316488E-30, -1.449999999999999067, -4.845680814221098793E-16 ) ) ;
#126 = SECURITY_CLASSIFICATION ( '', '', #20 ) ;
#127 = PERSON_AND_ORGANIZATION ( #142, #21 ) ;
#128 = DIRECTION ( 'NONE',  ( -3.491481338843133355E-15, 1.224646799147353207E-16, -1.000000000000000000 ) ) ;
#129 = DIRECTION ( 'NONE',  ( -3.491481338843133355E-15, 1.227517819005651059E-16, -1.000000000000000000 ) ) ;
#130 = PLANE ( 'NONE',  #182 ) ;
#131 = CARTESIAN_POINT ( 'NONE',  ( 1.326762908760390423E-13, 8.998558695971053960E-33, 38.00000000000000000 ) ) ;
#132 = CC_DESIGN_APPROVAL ( #34, ( #134 ) ) ;
#133 = CALENDAR_DATE ( 2021, 16, 11 ) ;
#134 = PRODUCT_DEFINITION ( 'UNKNOWN', '', #189, #194 ) ;
#135 = PERSON_AND_ORGANIZATION ( #142, #21 ) ;
#136 = DIRECTION ( 'NONE',  ( -4.275831445896958607E-31, -1.000000000000000000, -1.224646799147353207E-16 ) ) ;
#137 = PERSON_AND_ORGANIZATION_ROLE ( 'creator' ) ;
#138 = PERSON_AND_ORGANIZATION_ROLE ( 'classification_officer' ) ;
#139 = AXIS2_PLACEMENT_3D ( 'NONE', #186, #80, #65 ) ;
#140 = CC_DESIGN_SECURITY_CLASSIFICATION ( #126, ( #189 ) ) ;
#141 = APPROVAL_STATUS ( 'not_yet_approved' ) ;
#142 = PERSON ( 'UNSPECIFIED', 'UNSPECIFIED', 'UNSPECIFIED', ('UNSPECIFIED'), ('UNSPECIFIED'), ('UNSPECIFIED') ) ;
#143 = PRODUCT_DEFINITION_SHAPE ( 'NONE', 'NONE',  #134 ) ;
#144 = EDGE_LOOP ( 'NONE', ( #174 ) ) ;
#145 = DIRECTION ( 'NONE',  ( -4.285855558155653280E-31, -1.000000000000000000, -1.227517819005651059E-16 ) ) ;
#146 = FACE_OUTER_BOUND ( 'NONE', #199, .T. ) ;
#147 = CIRCLE ( 'NONE', #77, 1.450000000000000844 ) ;
#148 = CC_DESIGN_APPROVAL ( #70, ( #126 ) ) ;
#149 = DIRECTION ( 'NONE',  ( 4.275831445896958607E-31, 1.000000000000000000, 1.224646799147353207E-16 ) ) ;
#150 = PRODUCT ( '966106', '966106', '', ( #152 ) ) ;
#151 = CARTESIAN_POINT ( 'NONE',  ( -4.275811853558651348E-31, 1.499752910594655314E-32, -1.224641187678636516E-16 ) ) ;
#152 = MECHANICAL_CONTEXT ( 'NONE', #3, 'mechanical' ) ;
#153 =( NAMED_UNIT ( * ) SI_UNIT ( $, .STERADIAN. ) SOLID_ANGLE_UNIT ( ) );
#154 = CARTESIAN_POINT ( 'NONE',  ( 2.755836190664958274E-14, -1.096208464112113704E-16, 7.893028554974538480 ) ) ;
#155 = CARTESIAN_POINT ( 'NONE',  ( 1.326762908760390423E-13, 1.199999999999992406, 38.00000000000000000 ) ) ;
#156 = MANIFOLD_SOLID_BREP ( 'Corps-Déplacer/Copier1[1]', #213 ) ;
#157 = ORIENTED_EDGE ( 'NONE', *, *, #105, .F. ) ;
#158 = CARTESIAN_POINT ( 'NONE',  ( 2.444036937190193349E-14, 1.124819836996386774E-32, 7.000000000000000000 ) ) ;
#159 = APPROVAL_DATE_TIME ( #19, #70 ) ;
#160 = EDGE_CURVE ( 'NONE', #86, #86, #54, .T. ) ;
#161 = DATE_AND_TIME ( #121, #184 ) ;
#162 = AXIS2_PLACEMENT_3D ( 'NONE', #28, #90, #164 ) ;
#163 = APPLICATION_CONTEXT ( 'configuration controlled 3d designs of mechanical parts and assemblies' ) ;
#164 = DIRECTION ( 'NONE',  ( 0.0000000000000000000, 1.000000000000000000, 0.0000000000000000000 ) ) ;
#165 = CC_DESIGN_DATE_AND_TIME_ASSIGNMENT ( #104, #181, ( #126 ) ) ;
#166 = CIRCLE ( 'NONE', #97, 1.499999999999994893 ) ;
#167 = DIRECTION ( 'NONE',  ( 3.491481338843133355E-15, -1.227517819005651059E-16, 1.000000000000000000 ) ) ;
#168 = CARTESIAN_POINT ( 'NONE',  ( 0.0000000000000000000, 0.0000000000000000000, 0.0000000000000000000 ) ) ;
#169 = CARTESIAN_POINT ( 'NONE',  ( 0.0000000000000000000, 0.0000000000000000000, 0.0000000000000000000 ) ) ;
#170 = DIRECTION ( 'NONE',  ( -3.491481338843133355E-15, 1.224646799147353207E-16, -1.000000000000000000 ) ) ;
#171 = FACE_OUTER_BOUND ( 'NONE', #116, .T. ) ;
#172 = VERTEX_POINT ( 'NONE', #16 ) ;
#173 = DIRECTION ( 'NONE',  ( 0.0000000000000000000, 1.000000000000000000, 0.0000000000000000000 ) ) ;
#174 = ORIENTED_EDGE ( 'NONE', *, *, #79, .T. ) ;
#175 = VERTEX_POINT ( 'NONE', #52 ) ;
#176 = PRODUCT_RELATED_PRODUCT_CATEGORY ( 'detail', '', ( #150 ) ) ;
#177 = DATE_AND_TIME ( #200, #218 ) ;
#178 = PERSON_AND_ORGANIZATION ( #142, #21 ) ;
#179 = EDGE_CURVE ( 'NONE', #124, #124, #203, .T. ) ;
#180 = COORDINATED_UNIVERSAL_TIME_OFFSET ( 1, 0, .AHEAD. ) ;
#181 = DATE_TIME_ROLE ( 'classification_date' ) ;
#182 = AXIS2_PLACEMENT_3D ( 'NONE', #151, #95, #84 ) ;
#183 = ADVANCED_FACE ( 'NONE', ( #69 ), #130, .F. ) ;
#184 = LOCAL_TIME ( 16, 36, 19.00000000000000000, #180 ) ;
#185 = APPROVAL ( #141, 'UNSPECIFIED' ) ;
#186 = CARTESIAN_POINT ( 'NONE',  ( 2.444036937190193033E-14, 0.0000000000000000000, 6.999999999999999112 ) ) ;
#187 = CARTESIAN_POINT ( 'NONE',  ( -1.070411357751747218E-30, 1.508391285217714007E-32, -3.065779976662905572E-16 ) ) ;
#188 = AXIS2_PLACEMENT_3D ( 'NONE', #32, #68, #82 ) ;
#189 = PRODUCT_DEFINITION_FORMATION_WITH_SPECIFIED_SOURCE ( 'ANY', '', #150, .NOT_KNOWN. ) ;
#190 = ORIENTED_EDGE ( 'NONE', *, *, #160, .T. ) ;
#191 = FACE_OUTER_BOUND ( 'NONE', #210, .T. ) ;
#192 = COORDINATED_UNIVERSAL_TIME_OFFSET ( 1, 0, .AHEAD. ) ;
#193 = EDGE_LOOP ( 'NONE', ( #27 ) ) ;
#194 = DESIGN_CONTEXT ( 'detailed design', #163, 'design' ) ;
#195 = APPROVAL_DATE_TIME ( #211, #185 ) ;
#196 = ADVANCED_FACE ( 'NONE', ( #94, #113 ), #51, .T. ) ;
#197 = AXIS2_PLACEMENT_3D ( 'NONE', #187, #167, #145 ) ;
#198 = DIRECTION ( 'NONE',  ( 3.491481338843133355E-15, -1.224646799147353207E-16, 1.000000000000000000 ) ) ;
#199 = EDGE_LOOP ( 'NONE', ( #202 ) ) ;
#200 = CALENDAR_DATE ( 2021, 16, 11 ) ;
#201 = APPROVAL_ROLE ( '' ) ;
#202 = ORIENTED_EDGE ( 'NONE', *, *, #179, .T. ) ;
#203 = CIRCLE ( 'NONE', #188, 1.450000000000000844 ) ;
#204 = CARTESIAN_POINT ( 'NONE',  ( 2.444036937190193033E-14, -1.450000000000001732, 6.999999999999999112 ) ) ;
#205 = ADVANCED_FACE ( 'NONE', ( #110, #191 ), #223, .T. ) ;
#206 = DIRECTION ( 'NONE',  ( 0.0000000000000000000, -1.000000000000000000, 0.0000000000000000000 ) ) ;
#207 = DIRECTION ( 'NONE',  ( 3.491481338843133355E-15, -1.227517819005651059E-16, 1.000000000000000000 ) ) ;
#208 = CC_DESIGN_DATE_AND_TIME_ASSIGNMENT ( #161, #6, ( #134 ) ) ;
#209 = VERTEX_POINT ( 'NONE', #222 ) ;
#210 = EDGE_LOOP ( 'NONE', ( #46 ) ) ;
#211 = DATE_AND_TIME ( #119, #45 ) ;
#212 = SHAPE_DEFINITION_REPRESENTATION ( #143, #13 ) ;
#213 = CLOSED_SHELL ( 'NONE', ( #196, #96, #48, #107, #10 ) ) ;
#214 = DIRECTION ( 'NONE',  ( 3.491481338843133355E-15, -1.224646799147353207E-16, 1.000000000000000000 ) ) ;
#215 = CC_DESIGN_APPROVAL ( #185, ( #189 ) ) ;
#216 = PERSON_AND_ORGANIZATION ( #142, #21 ) ;
#217 = DIRECTION ( 'NONE',  ( 0.0000000000000000000, 1.000000000000000000, 0.0000000000000000000 ) ) ;
#218 = LOCAL_TIME ( 16, 36, 19.00000000000000000, #9 ) ;
#219 = CARTESIAN_POINT ( 'NONE',  ( 1.316288464743861212E-13, -4.616918432785521081E-15, 37.69999999999999574 ) ) ;
#220 = FACE_OUTER_BOUND ( 'NONE', #101, .T. ) ;
#221 = FACE_OUTER_BOUND ( 'NONE', #56, .T. ) ;
#222 = CARTESIAN_POINT ( 'NONE',  ( 1.316288464743861212E-13, 1.499999999999992228, 37.69999999999999574 ) ) ;
#223 = CYLINDRICAL_SURFACE ( 'NONE', #72, 1.449999999999999956 ) ;
ENDSEC;
END-ISO-10303-21;
