ISO-10303-21;
HEADER;
FILE_DESCRIPTION (( 'STEP AP203' ),
    '1' );
FILE_NAME ('966105.step',
    '2021-11-16T15:36:18',
    ( '' ),
    ( '' ),
    'SwSTEP 2.0',
    'SolidWorks 2019',
    '' );
FILE_SCHEMA (( 'CONFIG_CONTROL_DESIGN' ));
ENDSEC;

DATA;
#1 = AXIS2_PLACEMENT_3D ( 'NONE', #45, #102, #11 ) ;
#2 = ADVANCED_FACE ( 'NONE', ( #148, #115 ), #128, .T. ) ;
#3 = AXIS2_PLACEMENT_3D ( 'NONE', #139, #185, #48 ) ;
#4 = LOCAL_TIME ( 16, 36, 18.00000000000000000, #43 ) ;
#5 = FACE_OUTER_BOUND ( 'NONE', #85, .T. ) ;
#6 = VERTEX_POINT ( 'NONE', #147 ) ;
#7 = CARTESIAN_POINT ( 'NONE',  ( -6.000197781417909862E-31, -1.453882709197872400E-33, -1.718524946607910102E-16 ) ) ;
#8 = EDGE_CURVE ( 'NONE', #218, #218, #90, .T. ) ;
#9 = ORGANIZATION ( 'UNSPECIFIED', 'UNSPECIFIED', '' ) ;
#10 = ORIENTED_EDGE ( 'NONE', *, *, #22, .F. ) ;
#11 = DIRECTION ( 'NONE',  ( 0.0000000000000000000, 1.000000000000000000, 0.0000000000000000000 ) ) ;
#12 = CARTESIAN_POINT ( 'NONE',  ( 2.444036937190193349E-14, 1.124819836996386774E-32, 7.000000000000000000 ) ) ;
#13 = MECHANICAL_CONTEXT ( 'NONE', #84, 'mechanical' ) ;
#14 = CIRCLE ( 'NONE', #3, 1.199999999999996847 ) ;
#15 = CC_DESIGN_SECURITY_CLASSIFICATION ( #40, ( #211 ) ) ;
#16 = PERSON_AND_ORGANIZATION_ROLE ( 'creator' ) ;
#17 = CC_DESIGN_PERSON_AND_ORGANIZATION_ASSIGNMENT ( #157, #220, ( #40 ) ) ;
#18 = ORIENTED_EDGE ( 'NONE', *, *, #74, .T. ) ;
#19 = DIRECTION ( 'NONE',  ( 1.000000000000000000, 0.0000000000000000000, 0.0000000000000000000 ) ) ;
#20 = PRODUCT ( '966105', '966105', '', ( #13 ) ) ;
#21 = EDGE_LOOP ( 'NONE', ( #10 ) ) ;
#22 = EDGE_CURVE ( 'NONE', #190, #190, #82, .T. ) ;
#23 = PERSON_AND_ORGANIZATION ( #197, #9 ) ;
#24 = ORIENTED_EDGE ( 'NONE', *, *, #8, .F. ) ;
#25 = AXIS2_PLACEMENT_3D ( 'NONE', #46, #141, #166 ) ;
#26 = AXIS2_PLACEMENT_3D ( 'NONE', #97, #118, #216 ) ;
#27 = FACE_OUTER_BOUND ( 'NONE', #158, .T. ) ;
#28 = CARTESIAN_POINT ( 'NONE',  ( 2.444036937190193033E-14, -1.400000000000000133, 6.999999999999999112 ) ) ;
#29 = DIRECTION ( 'NONE',  ( 4.275831445896958607E-31, 1.000000000000000000, 1.224646799147353207E-16 ) ) ;
#30 = FACE_OUTER_BOUND ( 'NONE', #122, .T. ) ;
#31 = ADVANCED_BREP_SHAPE_REPRESENTATION ( '966105', ( #180, #181, #193 ), #149 ) ;
#32 = CC_DESIGN_PERSON_AND_ORGANIZATION_ASSIGNMENT ( #112, #178, ( #211 ) ) ;
#33 = AXIS2_PLACEMENT_3D ( 'NONE', #7, #204, #68 ) ;
#34 = VERTEX_POINT ( 'NONE', #165 ) ;
#35 = DATE_AND_TIME ( #57, #81 ) ;
#36 = CC_DESIGN_DATE_AND_TIME_ASSIGNMENT ( #37, #171, ( #40 ) ) ;
#37 = DATE_AND_TIME ( #53, #62 ) ;
#38 = ORIENTED_EDGE ( 'NONE', *, *, #107, .F. ) ;
#39 = CIRCLE ( 'NONE', #33, 1.399999999999998801 ) ;
#40 = SECURITY_CLASSIFICATION ( '', '', #169 ) ;
#41 = APPROVAL_ROLE ( '' ) ;
#42 =( NAMED_UNIT ( * ) PLANE_ANGLE_UNIT ( ) SI_UNIT ( $, .RADIAN. ) );
#43 = COORDINATED_UNIVERSAL_TIME_OFFSET ( 1, 0, .AHEAD. ) ;
#44 = APPROVAL_PERSON_ORGANIZATION ( #221, #163, #41 ) ;
#45 = CARTESIAN_POINT ( 'NONE',  ( 1.316288464743861212E-13, -4.616918432785521081E-15, 37.69999999999999574 ) ) ;
#46 = CARTESIAN_POINT ( 'NONE',  ( 1.326762908760390423E-13, 8.998558695971053960E-33, 38.00000000000000000 ) ) ;
#47 = ADVANCED_FACE ( 'NONE', ( #105 ), #104, .T. ) ;
#48 = DIRECTION ( 'NONE',  ( 0.0000000000000000000, 1.000000000000000000, 0.0000000000000000000 ) ) ;
#49 = DIRECTION ( 'NONE',  ( -4.275831445896958607E-31, -1.000000000000000000, -1.224646799147353207E-16 ) ) ;
#50 = FACE_OUTER_BOUND ( 'NONE', #78, .T. ) ;
#51 = APPROVAL_PERSON_ORGANIZATION ( #222, #200, #129 ) ;
#52 = ADVANCED_FACE ( 'NONE', ( #66, #215 ), #109, .T. ) ;
#53 = CALENDAR_DATE ( 2021, 16, 11 ) ;
#54 = CARTESIAN_POINT ( 'NONE',  ( 0.0000000000000000000, 0.0000000000000000000, 0.0000000000000000000 ) ) ;
#55 = ORIENTED_EDGE ( 'NONE', *, *, #8, .T. ) ;
#56 = APPLICATION_CONTEXT ( 'configuration controlled 3d designs of mechanical parts and assemblies' ) ;
#57 = CALENDAR_DATE ( 2021, 16, 11 ) ;
#58 = EDGE_LOOP ( 'NONE', ( #130 ) ) ;
#59 = APPROVAL_PERSON_ORGANIZATION ( #60, #134, #212 ) ;
#60 = PERSON_AND_ORGANIZATION ( #197, #9 ) ;
#61 = EDGE_CURVE ( 'NONE', #34, #34, #14, .T. ) ;
#62 = LOCAL_TIME ( 16, 36, 18.00000000000000000, #73 ) ;
#63 = DIRECTION ( 'NONE',  ( -4.275831445896958607E-31, -1.000000000000000000, -1.224646799147353207E-16 ) ) ;
#64 = DIRECTION ( 'NONE',  ( -4.346902211956250045E-31, -1.000000000000000000, -1.227517819005651059E-16 ) ) ;
#65 = CIRCLE ( 'NONE', #127, 1.499999999999994893 ) ;
#66 = FACE_OUTER_BOUND ( 'NONE', #194, .T. ) ;
#67 = ADVANCED_FACE ( 'NONE', ( #27, #5 ), #206, .T. ) ;
#68 = DIRECTION ( 'NONE',  ( -4.285855558155653280E-31, -1.000000000000000000, -1.227517819005651059E-16 ) ) ;
#69 = EDGE_LOOP ( 'NONE', ( #24 ) ) ;
#70 = CARTESIAN_POINT ( 'NONE',  ( 2.444036937190193033E-14, 0.0000000000000000000, 6.999999999999999112 ) ) ;
#71 = APPLICATION_PROTOCOL_DEFINITION ( 'international standard', 'config_control_design', 1994, #84 ) ;
#72 = CC_DESIGN_APPROVAL ( #200, ( #211 ) ) ;
#73 = COORDINATED_UNIVERSAL_TIME_OFFSET ( 1, 0, .AHEAD. ) ;
#74 = EDGE_CURVE ( 'NONE', #6, #6, #100, .T. ) ;
#75 = DATE_AND_TIME ( #195, #4 ) ;
#76 = AXIS2_PLACEMENT_3D ( 'NONE', #83, #167, #86 ) ;
#77 = DIRECTION ( 'NONE',  ( 0.0000000000000000000, 0.0000000000000000000, 1.000000000000000000 ) ) ;
#78 = EDGE_LOOP ( 'NONE', ( #176 ) ) ;
#79 = APPROVAL_DATE_TIME ( #98, #134 ) ;
#80 = CC_DESIGN_PERSON_AND_ORGANIZATION_ASSIGNMENT ( #159, #16, ( #142 ) ) ;
#81 = LOCAL_TIME ( 16, 36, 18.00000000000000000, #173 ) ;
#82 = CIRCLE ( 'NONE', #26, 1.399999999999999245 ) ;
#83 = CARTESIAN_POINT ( 'NONE',  ( -4.275811853558651348E-31, 1.499752910594655314E-32, -1.224641187678636516E-16 ) ) ;
#84 = APPLICATION_CONTEXT ( 'configuration controlled 3d designs of mechanical parts and assemblies' ) ;
#85 = EDGE_LOOP ( 'NONE', ( #38 ) ) ;
#86 = DIRECTION ( 'NONE',  ( -4.275831445896958607E-31, -1.000000000000000000, -1.224646799147353207E-16 ) ) ;
#87 = ADVANCED_FACE ( 'NONE', ( #50 ), #164, .F. ) ;
#88 = DIRECTION ( 'NONE',  ( 3.491481338843133355E-15, -1.224646799147353207E-16, 1.000000000000000000 ) ) ;
#89 = PERSON_AND_ORGANIZATION ( #197, #9 ) ;
#90 = CIRCLE ( 'NONE', #138, 1.399999999999999245 ) ;
#91 = CALENDAR_DATE ( 2021, 16, 11 ) ;
#92 = ADVANCED_FACE ( 'NONE', ( #151, #153 ), #160, .F. ) ;
#93 = APPROVAL_DATE_TIME ( #35, #163 ) ;
#94 = EDGE_LOOP ( 'NONE', ( #113 ) ) ;
#95 = CARTESIAN_POINT ( 'NONE',  ( -6.413731847436034514E-31, 0.0000000000000000000, -1.836965810494968570E-16 ) ) ;
#96 = EDGE_CURVE ( 'NONE', #223, #223, #39, .T. ) ;
#97 = CARTESIAN_POINT ( 'NONE',  ( 2.444036937190193033E-14, -8.592624733039555931E-16, 6.999999999999999112 ) ) ;
#98 = DATE_AND_TIME ( #150, #101 ) ;
#99 = DIRECTION ( 'NONE',  ( 0.0000000000000000000, -1.000000000000000000, 0.0000000000000000000 ) ) ;
#100 = CIRCLE ( 'NONE', #1, 1.499999999999996669 ) ;
#101 = LOCAL_TIME ( 16, 36, 18.00000000000000000, #183 ) ;
#102 = DIRECTION ( 'NONE',  ( -3.491481338843133355E-15, 1.224646799147353207E-16, -1.000000000000000000 ) ) ;
#103 = PLANE ( 'NONE',  #25 ) ;
#104 = PLANE ( 'NONE',  #119 ) ;
#105 = FACE_OUTER_BOUND ( 'NONE', #58, .T. ) ;
#106 = APPROVAL_STATUS ( 'not_yet_approved' ) ;
#107 = EDGE_CURVE ( 'NONE', #145, #145, #65, .T. ) ;
#108 = APPLICATION_PROTOCOL_DEFINITION ( 'international standard', 'config_control_design', 1994, #56 ) ;
#109 = CONICAL_SURFACE ( 'NONE', #207, 1.199999999999996847, 0.7853981633974453924 ) ;
#110 = EDGE_LOOP ( 'NONE', ( #55 ) ) ;
#111 = ADVANCED_FACE ( 'NONE', ( #30 ), #103, .F. ) ;
#112 = PERSON_AND_ORGANIZATION ( #197, #9 ) ;
#113 = ORIENTED_EDGE ( 'NONE', *, *, #96, .T. ) ;
#114 = APPROVAL_DATE_TIME ( #75, #200 ) ;
#115 = FACE_OUTER_BOUND ( 'NONE', #21, .T. ) ;
#116 = DIRECTION ( 'NONE',  ( 3.491481338843133355E-15, -1.227517819005651059E-16, 1.000000000000000000 ) ) ;
#117 = CC_DESIGN_PERSON_AND_ORGANIZATION_ASSIGNMENT ( #89, #191, ( #20 ) ) ;
#118 = DIRECTION ( 'NONE',  ( 3.491481338843133355E-15, -1.227517819005651059E-16, 1.000000000000000000 ) ) ;
#119 = AXIS2_PLACEMENT_3D ( 'NONE', #12, #88, #63 ) ;
#120 = PLANE ( 'NONE',  #152 ) ;
#121 = CARTESIAN_POINT ( 'NONE',  ( 1.326762908760390423E-13, -4.653657836759941941E-15, 38.00000000000000000 ) ) ;
#122 = EDGE_LOOP ( 'NONE', ( #189 ) ) ;
#123 = DIRECTION ( 'NONE',  ( -3.491481338843133355E-15, 1.224646799147353207E-16, -1.000000000000000000 ) ) ;
#124 = CARTESIAN_POINT ( 'NONE',  ( 2.444036937190193033E-14, -1.400000000000000133, 6.999999999999999112 ) ) ;
#125 = DATE_AND_TIME ( #91, #170 ) ;
#126 =( LENGTH_UNIT ( ) NAMED_UNIT ( * ) SI_UNIT ( .MILLI., .METRE. ) );
#127 = AXIS2_PLACEMENT_3D ( 'NONE', #137, #188, #202 ) ;
#128 = CYLINDRICAL_SURFACE ( 'NONE', #135, 1.399999999999999023 ) ;
#129 = APPROVAL_ROLE ( '' ) ;
#130 = ORIENTED_EDGE ( 'NONE', *, *, #22, .T. ) ;
#131 = ADVANCED_FACE ( 'NONE', ( #217 ), #120, .F. ) ;
#132 = APPROVAL_STATUS ( 'not_yet_approved' ) ;
#133 = CC_DESIGN_DATE_AND_TIME_ASSIGNMENT ( #125, #192, ( #142 ) ) ;
#134 = APPROVAL ( #132, 'UNSPECIFIED' ) ;
#135 = AXIS2_PLACEMENT_3D ( 'NONE', #95, #162, #174 ) ;
#136 = DIRECTION ( 'NONE',  ( 0.0000000000000000000, 1.000000000000000000, 0.0000000000000000000 ) ) ;
#137 = CARTESIAN_POINT ( 'NONE',  ( 2.884295982341886048E-14, -1.547841075046906632E-16, 8.260952021291823044 ) ) ;
#138 = AXIS2_PLACEMENT_3D ( 'NONE', #198, #116, #99 ) ;
#139 = CARTESIAN_POINT ( 'NONE',  ( 1.326762908760390423E-13, -4.653657836759941941E-15, 38.00000000000000000 ) ) ;
#140 = ORIENTED_EDGE ( 'NONE', *, *, #74, .F. ) ;
#141 = DIRECTION ( 'NONE',  ( -3.491481338843133355E-15, 1.224646799147353207E-16, -1.000000000000000000 ) ) ;
#142 = PRODUCT_DEFINITION ( 'UNKNOWN', '', #211, #214 ) ;
#143 = AXIS2_PLACEMENT_3D ( 'NONE', #70, #155, #64 ) ;
#144 = CC_DESIGN_APPROVAL ( #134, ( #40 ) ) ;
#145 = VERTEX_POINT ( 'NONE', #208 ) ;
#146 =( NAMED_UNIT ( * ) SI_UNIT ( $, .STERADIAN. ) SOLID_ANGLE_UNIT ( ) );
#147 = CARTESIAN_POINT ( 'NONE',  ( 1.316288464743861212E-13, 1.499999999999992228, 37.69999999999999574 ) ) ;
#148 = FACE_OUTER_BOUND ( 'NONE', #94, .T. ) ;
#149 =( GEOMETRIC_REPRESENTATION_CONTEXT ( 3 ) GLOBAL_UNCERTAINTY_ASSIGNED_CONTEXT ( ( #199 ) ) GLOBAL_UNIT_ASSIGNED_CONTEXT ( ( #126, #42, #146 ) ) REPRESENTATION_CONTEXT ( 'NONE', 'WORKASPACE' ) );
#150 = CALENDAR_DATE ( 2021, 16, 11 ) ;
#151 = FACE_OUTER_BOUND ( 'NONE', #110, .T. ) ;
#152 = AXIS2_PLACEMENT_3D ( 'NONE', #168, #205, #49 ) ;
#153 = FACE_OUTER_BOUND ( 'NONE', #210, .T. ) ;
#154 = ORIENTED_EDGE ( 'NONE', *, *, #61, .T. ) ;
#155 = DIRECTION ( 'NONE',  ( 3.491481338843133355E-15, -1.227517819005651059E-16, 1.000000000000000000 ) ) ;
#156 = CARTESIAN_POINT ( 'NONE',  ( -1.200039556283581972E-30, -1.399999999999998801, -3.437049893215820203E-16 ) ) ;
#157 = PERSON_AND_ORGANIZATION ( #197, #9 ) ;
#158 = EDGE_LOOP ( 'NONE', ( #18 ) ) ;
#159 = PERSON_AND_ORGANIZATION ( #197, #9 ) ;
#160 = TOROIDAL_SURFACE ( 'NONE', #143, 9.399999999999998579, 8.000000000000000000 ) ;
#161 = EDGE_LOOP ( 'NONE', ( #154 ) ) ;
#162 = DIRECTION ( 'NONE',  ( 3.491481338843133355E-15, -1.227517819005651059E-16, 1.000000000000000000 ) ) ;
#163 = APPROVAL ( #106, 'UNSPECIFIED' ) ;
#164 = PLANE ( 'NONE',  #76 ) ;
#165 = CARTESIAN_POINT ( 'NONE',  ( 1.326762908760390423E-13, 1.199999999999992406, 38.00000000000000000 ) ) ;
#166 = DIRECTION ( 'NONE',  ( 4.275831445896958607E-31, 1.000000000000000000, 1.224646799147353207E-16 ) ) ;
#167 = DIRECTION ( 'NONE',  ( 3.491481338843133355E-15, -1.224646799147353207E-16, 1.000000000000000000 ) ) ;
#168 = CARTESIAN_POINT ( 'NONE',  ( 2.444036937190193349E-14, 1.124819836996386774E-32, 7.000000000000000000 ) ) ;
#169 = SECURITY_CLASSIFICATION_LEVEL ( 'unclassified' ) ;
#170 = LOCAL_TIME ( 16, 36, 18.00000000000000000, #175 ) ;
#171 = DATE_TIME_ROLE ( 'classification_date' ) ;
#172 = ORIENTED_EDGE ( 'NONE', *, *, #107, .T. ) ;
#173 = COORDINATED_UNIVERSAL_TIME_OFFSET ( 1, 0, .AHEAD. ) ;
#174 = DIRECTION ( 'NONE',  ( -4.285855558155654155E-31, -1.000000000000000000, -1.227517819005651305E-16 ) ) ;
#175 = COORDINATED_UNIVERSAL_TIME_OFFSET ( 1, 0, .AHEAD. ) ;
#176 = ORIENTED_EDGE ( 'NONE', *, *, #96, .F. ) ;
#177 = PRODUCT_RELATED_PRODUCT_CATEGORY ( 'detail', '', ( #20 ) ) ;
#178 = PERSON_AND_ORGANIZATION_ROLE ( 'creator' ) ;
#179 = CLOSED_SHELL ( 'NONE', ( #47, #2, #87 ) ) ;
#180 = MANIFOLD_SOLID_BREP ( 'Corps-Déplacer/Copier1[1]', #209 ) ;
#181 = MANIFOLD_SOLID_BREP ( 'Corps-Déplacer/Copier1[2]', #179 ) ;
#182 = PRODUCT_DEFINITION_SHAPE ( 'NONE', 'NONE',  #142 ) ;
#183 = COORDINATED_UNIVERSAL_TIME_OFFSET ( 1, 0, .AHEAD. ) ;
#184 = CC_DESIGN_PERSON_AND_ORGANIZATION_ASSIGNMENT ( #23, #219, ( #211 ) ) ;
#185 = DIRECTION ( 'NONE',  ( -3.491481338843133355E-15, 1.224646799147353207E-16, -1.000000000000000000 ) ) ;
#186 = CC_DESIGN_APPROVAL ( #163, ( #142 ) ) ;
#187 = CARTESIAN_POINT ( 'NONE',  ( 0.0000000000000000000, 0.0000000000000000000, 0.0000000000000000000 ) ) ;
#188 = DIRECTION ( 'NONE',  ( -3.491481338843133355E-15, 1.227517819005651059E-16, -1.000000000000000000 ) ) ;
#189 = ORIENTED_EDGE ( 'NONE', *, *, #61, .F. ) ;
#190 = VERTEX_POINT ( 'NONE', #28 ) ;
#191 = PERSON_AND_ORGANIZATION_ROLE ( 'design_owner' ) ;
#192 = DATE_TIME_ROLE ( 'creation_date' ) ;
#193 = AXIS2_PLACEMENT_3D ( 'NONE', #54, #77, #19 ) ;
#194 = EDGE_LOOP ( 'NONE', ( #140 ) ) ;
#195 = CALENDAR_DATE ( 2021, 16, 11 ) ;
#196 = APPROVAL_STATUS ( 'not_yet_approved' ) ;
#197 = PERSON ( 'UNSPECIFIED', 'UNSPECIFIED', 'UNSPECIFIED', ('UNSPECIFIED'), ('UNSPECIFIED'), ('UNSPECIFIED') ) ;
#198 = CARTESIAN_POINT ( 'NONE',  ( 2.444036937190193033E-14, -8.592624733039555931E-16, 6.999999999999999112 ) ) ;
#199 = UNCERTAINTY_MEASURE_WITH_UNIT (LENGTH_MEASURE( 1.000000000000000082E-05 ), #126, 'distance_accuracy_value', 'NONE');
#200 = APPROVAL ( #196, 'UNSPECIFIED' ) ;
#201 = DIRECTION ( 'NONE',  ( -3.491481338843133355E-15, 1.224646799147353207E-16, -1.000000000000000000 ) ) ;
#202 = DIRECTION ( 'NONE',  ( 0.0000000000000000000, 1.000000000000000000, 0.0000000000000000000 ) ) ;
#203 = AXIS2_PLACEMENT_3D ( 'NONE', #187, #201, #29 ) ;
#204 = DIRECTION ( 'NONE',  ( 3.491481338843133355E-15, -1.227517819005651059E-16, 1.000000000000000000 ) ) ;
#205 = DIRECTION ( 'NONE',  ( 3.491481338843133355E-15, -1.224646799147353207E-16, 1.000000000000000000 ) ) ;
#206 = CYLINDRICAL_SURFACE ( 'NONE', #203, 1.499999999999994893 ) ;
#207 = AXIS2_PLACEMENT_3D ( 'NONE', #121, #123, #136 ) ;
#208 = CARTESIAN_POINT ( 'NONE',  ( 2.884295982341886048E-14, 1.499999999999994671, 8.260952021291823044 ) ) ;
#209 = CLOSED_SHELL ( 'NONE', ( #67, #52, #111, #92, #131 ) ) ;
#210 = EDGE_LOOP ( 'NONE', ( #172 ) ) ;
#211 = PRODUCT_DEFINITION_FORMATION_WITH_SPECIFIED_SOURCE ( 'ANY', '', #20, .NOT_KNOWN. ) ;
#212 = APPROVAL_ROLE ( '' ) ;
#213 = SHAPE_DEFINITION_REPRESENTATION ( #182, #31 ) ;
#214 = DESIGN_CONTEXT ( 'detailed design', #56, 'design' ) ;
#215 = FACE_BOUND ( 'NONE', #161, .T. ) ;
#216 = DIRECTION ( 'NONE',  ( 0.0000000000000000000, -1.000000000000000000, 0.0000000000000000000 ) ) ;
#217 = FACE_OUTER_BOUND ( 'NONE', #69, .T. ) ;
#218 = VERTEX_POINT ( 'NONE', #124 ) ;
#219 = PERSON_AND_ORGANIZATION_ROLE ( 'design_supplier' ) ;
#220 = PERSON_AND_ORGANIZATION_ROLE ( 'classification_officer' ) ;
#221 = PERSON_AND_ORGANIZATION ( #197, #9 ) ;
#222 = PERSON_AND_ORGANIZATION ( #197, #9 ) ;
#223 = VERTEX_POINT ( 'NONE', #156 ) ;
ENDSEC;
END-ISO-10303-21;
