ISO-10303-21;
HEADER;
FILE_DESCRIPTION (( 'STEP AP203' ),
    '1' );
FILE_NAME ('966104.step',
    '2021-11-16T15:36:18',
    ( '' ),
    ( '' ),
    'SwSTEP 2.0',
    'SolidWorks 2019',
    '' );
FILE_SCHEMA (( 'CONFIG_CONTROL_DESIGN' ));
ENDSEC;

DATA;
#1 = FACE_OUTER_BOUND ( 'NONE', #72, .T. ) ;
#2 = APPROVAL_PERSON_ORGANIZATION ( #193, #111, #24 ) ;
#3 = DIRECTION ( 'NONE',  ( 3.491481338843133355E-15, -1.224646799147353207E-16, 1.000000000000000000 ) ) ;
#4 = DIRECTION ( 'NONE',  ( -3.491481338843133355E-15, 1.227517819005651059E-16, -1.000000000000000000 ) ) ;
#5 = DATE_AND_TIME ( #222, #149 ) ;
#6 = CARTESIAN_POINT ( 'NONE',  ( -4.275811853558651348E-31, 1.499752910594655314E-32, -1.224641187678636516E-16 ) ) ;
#7 = APPROVAL_ROLE ( '' ) ;
#8 = AXIS2_PLACEMENT_3D ( 'NONE', #156, #104, #19 ) ;
#9 = PLANE ( 'NONE',  #43 ) ;
#10 = PERSON_AND_ORGANIZATION_ROLE ( 'creator' ) ;
#11 = APPLICATION_PROTOCOL_DEFINITION ( 'international standard', 'config_control_design', 1994, #171 ) ;
#12 = ADVANCED_FACE ( 'NONE', ( #175 ), #36, .T. ) ;
#13 = FACE_OUTER_BOUND ( 'NONE', #132, .T. ) ;
#14 = CARTESIAN_POINT ( 'NONE',  ( 1.326762908760390423E-13, 1.199999999999992406, 38.00000000000000000 ) ) ;
#15 = DIRECTION ( 'NONE',  ( 3.491481338843133355E-15, -1.227517819005651059E-16, 1.000000000000000000 ) ) ;
#16 = DIRECTION ( 'NONE',  ( 3.491481338843133355E-15, -1.227517819005651059E-16, 1.000000000000000000 ) ) ;
#17 = CARTESIAN_POINT ( 'NONE',  ( 1.326762908760390423E-13, -4.653657836759941941E-15, 38.00000000000000000 ) ) ;
#18 = APPROVAL ( #51, 'UNSPECIFIED' ) ;
#19 = DIRECTION ( 'NONE',  ( 0.0000000000000000000, 1.000000000000000000, 0.0000000000000000000 ) ) ;
#20 = APPROVAL_PERSON_ORGANIZATION ( #137, #18, #7 ) ;
#21 = DATE_AND_TIME ( #38, #76 ) ;
#22 = DIRECTION ( 'NONE',  ( 4.275831445896958607E-31, 1.000000000000000000, 1.224646799147353207E-16 ) ) ;
#23 = PERSON_AND_ORGANIZATION_ROLE ( 'classification_officer' ) ;
#24 = APPROVAL_ROLE ( '' ) ;
#25 = PRODUCT_DEFINITION_FORMATION_WITH_SPECIFIED_SOURCE ( 'ANY', '', #55, .NOT_KNOWN. ) ;
#26 = PERSON_AND_ORGANIZATION_ROLE ( 'creator' ) ;
#27 = CC_DESIGN_DATE_AND_TIME_ASSIGNMENT ( #184, #102, ( #146 ) ) ;
#28 = AXIS2_PLACEMENT_3D ( 'NONE', #6, #115, #99 ) ;
#29 = ORIENTED_EDGE ( 'NONE', *, *, #30, .T. ) ;
#30 = EDGE_CURVE ( 'NONE', #80, #80, #118, .T. ) ;
#31 = CARTESIAN_POINT ( 'NONE',  ( 1.316288464743861212E-13, 1.499999999999992228, 37.69999999999999574 ) ) ;
#32 = CARTESIAN_POINT ( 'NONE',  ( 2.356749903719114699E-14, 0.0000000000000000000, 6.749999999999999112 ) ) ;
#33 = APPROVAL ( #126, 'UNSPECIFIED' ) ;
#34 = APPROVAL_ROLE ( '' ) ;
#35 = AXIS2_PLACEMENT_3D ( 'NONE', #17, #82, #199 ) ;
#36 = PLANE ( 'NONE',  #89 ) ;
#37 = DIRECTION ( 'NONE',  ( -3.491481338843133355E-15, 1.224646799147353207E-16, -1.000000000000000000 ) ) ;
#38 = CALENDAR_DATE ( 2021, 16, 11 ) ;
#39 = ADVANCED_BREP_SHAPE_REPRESENTATION ( '966104', ( #223, #91, #194 ), #167 ) ;
#40 = PRODUCT_DEFINITION_SHAPE ( 'NONE', 'NONE',  #164 ) ;
#41 = DATE_AND_TIME ( #121, #179 ) ;
#42 = EDGE_LOOP ( 'NONE', ( #195 ) ) ;
#43 = AXIS2_PLACEMENT_3D ( 'NONE', #144, #37, #22 ) ;
#44 = CARTESIAN_POINT ( 'NONE',  ( -6.413731847436034514E-31, 0.0000000000000000000, -1.836965810494968570E-16 ) ) ;
#45 = ORIENTED_EDGE ( 'NONE', *, *, #116, .F. ) ;
#46 = CARTESIAN_POINT ( 'NONE',  ( 2.356749903719114699E-14, -8.285745278288143290E-16, 6.749999999999999112 ) ) ;
#47 = AXIS2_PLACEMENT_3D ( 'NONE', #161, #4, #191 ) ;
#48 = LOCAL_TIME ( 16, 36, 18.00000000000000000, #59 ) ;
#49 = DIRECTION ( 'NONE',  ( 0.0000000000000000000, -1.000000000000000000, 0.0000000000000000000 ) ) ;
#50 = DIRECTION ( 'NONE',  ( 3.491481338843133355E-15, -1.227517819005651059E-16, 1.000000000000000000 ) ) ;
#51 = APPROVAL_STATUS ( 'not_yet_approved' ) ;
#52 = CC_DESIGN_APPROVAL ( #111, ( #164 ) ) ;
#53 = EDGE_LOOP ( 'NONE', ( #29 ) ) ;
#54 = CC_DESIGN_PERSON_AND_ORGANIZATION_ASSIGNMENT ( #73, #26, ( #25 ) ) ;
#55 = PRODUCT ( '966104', '966104', '', ( #141 ) ) ;
#56 = APPROVAL_DATE_TIME ( #41, #18 ) ;
#57 = SHAPE_DEFINITION_REPRESENTATION ( #40, #39 ) ;
#58 = CC_DESIGN_PERSON_AND_ORGANIZATION_ASSIGNMENT ( #85, #110, ( #55 ) ) ;
#59 = COORDINATED_UNIVERSAL_TIME_OFFSET ( 1, 0, .AHEAD. ) ;
#60 = EDGE_LOOP ( 'NONE', ( #64 ) ) ;
#61 = TOROIDAL_SURFACE ( 'NONE', #101, 9.349999999999999645, 8.000000000000000000 ) ;
#62 = FACE_OUTER_BOUND ( 'NONE', #114, .T. ) ;
#63 = EDGE_CURVE ( 'NONE', #117, #117, #202, .T. ) ;
#64 = ORIENTED_EDGE ( 'NONE', *, *, #77, .T. ) ;
#65 = ORIENTED_EDGE ( 'NONE', *, *, #63, .T. ) ;
#66 = CARTESIAN_POINT ( 'NONE',  ( 2.356749903719114699E-14, -8.285745278288143290E-16, 6.749999999999999112 ) ) ;
#67 = DATE_TIME_ROLE ( 'creation_date' ) ;
#68 = CC_DESIGN_DATE_AND_TIME_ASSIGNMENT ( #5, #67, ( #164 ) ) ;
#69 = CC_DESIGN_PERSON_AND_ORGANIZATION_ASSIGNMENT ( #157, #87, ( #25 ) ) ;
#70 = PERSON_AND_ORGANIZATION ( #176, #96 ) ;
#71 = AXIS2_PLACEMENT_3D ( 'NONE', #181, #169, #204 ) ;
#72 = EDGE_LOOP ( 'NONE', ( #219 ) ) ;
#73 = PERSON_AND_ORGANIZATION ( #176, #96 ) ;
#74 = PERSON_AND_ORGANIZATION ( #176, #96 ) ;
#75 = AXIS2_PLACEMENT_3D ( 'NONE', #108, #140, #86 ) ;
#76 = LOCAL_TIME ( 16, 36, 18.00000000000000000, #208 ) ;
#77 = EDGE_CURVE ( 'NONE', #94, #94, #124, .T. ) ;
#78 = PLANE ( 'NONE',  #183 ) ;
#79 = CARTESIAN_POINT ( 'NONE',  ( 2.895106437171957313E-14, 1.499999999999994671, 8.291914394510900621 ) ) ;
#80 = VERTEX_POINT ( 'NONE', #31 ) ;
#81 = FACE_OUTER_BOUND ( 'NONE', #60, .T. ) ;
#82 = DIRECTION ( 'NONE',  ( -3.491481338843133355E-15, 1.224646799147353207E-16, -1.000000000000000000 ) ) ;
#83 = CLOSED_SHELL ( 'NONE', ( #12, #172, #103 ) ) ;
#84 = PRODUCT_RELATED_PRODUCT_CATEGORY ( 'detail', '', ( #55 ) ) ;
#85 = PERSON_AND_ORGANIZATION ( #176, #96 ) ;
#86 = DIRECTION ( 'NONE',  ( -4.285855558155653280E-31, -1.000000000000000000, -1.227517819005651059E-16 ) ) ;
#87 = PERSON_AND_ORGANIZATION_ROLE ( 'design_supplier' ) ;
#88 = CALENDAR_DATE ( 2021, 16, 11 ) ;
#89 = AXIS2_PLACEMENT_3D ( 'NONE', #107, #3, #123 ) ;
#90 = EDGE_CURVE ( 'NONE', #150, #150, #105, .T. ) ;
#91 = MANIFOLD_SOLID_BREP ( 'Corps-Déplacer/Copier1[2]', #83 ) ;
#92 = CC_DESIGN_APPROVAL ( #33, ( #146 ) ) ;
#93 = FACE_OUTER_BOUND ( 'NONE', #53, .T. ) ;
#94 = VERTEX_POINT ( 'NONE', #79 ) ;
#95 = ADVANCED_FACE ( 'NONE', ( #189 ), #9, .F. ) ;
#96 = ORGANIZATION ( 'UNSPECIFIED', 'UNSPECIFIED', '' ) ;
#97 = CARTESIAN_POINT ( 'NONE',  ( -1.157181000702025755E-30, -1.349999999999999201, -3.314298111315255935E-16 ) ) ;
#98 = DIRECTION ( 'NONE',  ( 3.491481338843133355E-15, -1.227517819005651059E-16, 1.000000000000000000 ) ) ;
#99 = DIRECTION ( 'NONE',  ( -4.275831445896958607E-31, -1.000000000000000000, -1.224646799147353207E-16 ) ) ;
#100 = COORDINATED_UNIVERSAL_TIME_OFFSET ( 1, 0, .AHEAD. ) ;
#101 = AXIS2_PLACEMENT_3D ( 'NONE', #32, #50, #201 ) ;
#102 = DATE_TIME_ROLE ( 'classification_date' ) ;
#103 = ADVANCED_FACE ( 'NONE', ( #1 ), #158, .F. ) ;
#104 = DIRECTION ( 'NONE',  ( -3.491481338843133355E-15, 1.224646799147353207E-16, -1.000000000000000000 ) ) ;
#105 = CIRCLE ( 'NONE', #75, 1.349999999999999201 ) ;
#106 = LOCAL_TIME ( 16, 36, 18.00000000000000000, #100 ) ;
#107 = CARTESIAN_POINT ( 'NONE',  ( 2.356749903719115015E-14, 1.124819836996386774E-32, 6.750000000000000000 ) ) ;
#108 = CARTESIAN_POINT ( 'NONE',  ( -5.785905003510128774E-31, -2.207282707186062639E-33, -1.657149055657627968E-16 ) ) ;
#109 = APPROVAL_STATUS ( 'not_yet_approved' ) ;
#110 = PERSON_AND_ORGANIZATION_ROLE ( 'design_owner' ) ;
#111 = APPROVAL ( #109, 'UNSPECIFIED' ) ;
#112 = EDGE_LOOP ( 'NONE', ( #45 ) ) ;
#113 = CIRCLE ( 'NONE', #138, 1.349999999999999645 ) ;
#114 = EDGE_LOOP ( 'NONE', ( #122 ) ) ;
#115 = DIRECTION ( 'NONE',  ( 3.491481338843133355E-15, -1.224646799147353207E-16, 1.000000000000000000 ) ) ;
#116 = EDGE_CURVE ( 'NONE', #151, #151, #153, .T. ) ;
#117 = VERTEX_POINT ( 'NONE', #14 ) ;
#118 = CIRCLE ( 'NONE', #160, 1.499999999999996669 ) ;
#119 =( LENGTH_UNIT ( ) NAMED_UNIT ( * ) SI_UNIT ( .MILLI., .METRE. ) );
#120 = FACE_BOUND ( 'NONE', #165, .T. ) ;
#121 = CALENDAR_DATE ( 2021, 16, 11 ) ;
#122 = ORIENTED_EDGE ( 'NONE', *, *, #116, .T. ) ;
#123 = DIRECTION ( 'NONE',  ( -4.275831445896958607E-31, -1.000000000000000000, -1.224646799147353207E-16 ) ) ;
#124 = CIRCLE ( 'NONE', #47, 1.499999999999994893 ) ;
#125 = CC_DESIGN_SECURITY_CLASSIFICATION ( #146, ( #25 ) ) ;
#126 = APPROVAL_STATUS ( 'not_yet_approved' ) ;
#127 = APPROVAL_DATE_TIME ( #21, #111 ) ;
#128 = ORIENTED_EDGE ( 'NONE', *, *, #77, .F. ) ;
#129 = CONICAL_SURFACE ( 'NONE', #35, 1.199999999999996847, 0.7853981633974453924 ) ;
#130 = CARTESIAN_POINT ( 'NONE',  ( 2.356749903719115015E-14, 1.124819836996386774E-32, 6.750000000000000000 ) ) ;
#131 = CC_DESIGN_PERSON_AND_ORGANIZATION_ASSIGNMENT ( #174, #10, ( #164 ) ) ;
#132 = EDGE_LOOP ( 'NONE', ( #180 ) ) ;
#133 = VERTEX_POINT ( 'NONE', #220 ) ;
#134 = EDGE_LOOP ( 'NONE', ( #213 ) ) ;
#135 = EDGE_LOOP ( 'NONE', ( #198 ) ) ;
#136 = FACE_OUTER_BOUND ( 'NONE', #203, .T. ) ;
#137 = PERSON_AND_ORGANIZATION ( #176, #96 ) ;
#138 = AXIS2_PLACEMENT_3D ( 'NONE', #66, #16, #221 ) ;
#139 = DESIGN_CONTEXT ( 'detailed design', #171, 'design' ) ;
#140 = DIRECTION ( 'NONE',  ( 3.491481338843133355E-15, -1.227517819005651059E-16, 1.000000000000000000 ) ) ;
#141 = MECHANICAL_CONTEXT ( 'NONE', #155, 'mechanical' ) ;
#142 = APPROVAL_DATE_TIME ( #190, #33 ) ;
#143 = UNCERTAINTY_MEASURE_WITH_UNIT (LENGTH_MEASURE( 1.000000000000000082E-05 ), #119, 'distance_accuracy_value', 'NONE');
#144 = CARTESIAN_POINT ( 'NONE',  ( 1.326762908760390423E-13, 8.998558695971053960E-33, 38.00000000000000000 ) ) ;
#145 = DIRECTION ( 'NONE',  ( 1.000000000000000000, 0.0000000000000000000, 0.0000000000000000000 ) ) ;
#146 = SECURITY_CLASSIFICATION ( '', '', #163 ) ;
#147 = EDGE_CURVE ( 'NONE', #133, #133, #113, .T. ) ;
#148 = FACE_OUTER_BOUND ( 'NONE', #112, .T. ) ;
#149 = LOCAL_TIME ( 16, 36, 18.00000000000000000, #159 ) ;
#150 = VERTEX_POINT ( 'NONE', #97 ) ;
#151 = VERTEX_POINT ( 'NONE', #217 ) ;
#152 = ADVANCED_FACE ( 'NONE', ( #93, #136 ), #166, .T. ) ;
#153 = CIRCLE ( 'NONE', #209, 1.349999999999999645 ) ;
#154 =( NAMED_UNIT ( * ) SI_UNIT ( $, .STERADIAN. ) SOLID_ANGLE_UNIT ( ) );
#155 = APPLICATION_CONTEXT ( 'configuration controlled 3d designs of mechanical parts and assemblies' ) ;
#156 = CARTESIAN_POINT ( 'NONE',  ( 1.326762908760390423E-13, -4.653657836759941941E-15, 38.00000000000000000 ) ) ;
#157 = PERSON_AND_ORGANIZATION ( #176, #96 ) ;
#158 = PLANE ( 'NONE',  #28 ) ;
#159 = COORDINATED_UNIVERSAL_TIME_OFFSET ( 1, 0, .AHEAD. ) ;
#160 = AXIS2_PLACEMENT_3D ( 'NONE', #187, #185, #192 ) ;
#161 = CARTESIAN_POINT ( 'NONE',  ( 2.895106437171957313E-14, -1.892727394643441100E-16, 8.291914394510900621 ) ) ;
#162 = DIRECTION ( 'NONE',  ( 0.0000000000000000000, 0.0000000000000000000, 1.000000000000000000 ) ) ;
#163 = SECURITY_CLASSIFICATION_LEVEL ( 'unclassified' ) ;
#164 = PRODUCT_DEFINITION ( 'UNKNOWN', '', #25, #139 ) ;
#165 = EDGE_LOOP ( 'NONE', ( #65 ) ) ;
#166 = CYLINDRICAL_SURFACE ( 'NONE', #71, 1.499999999999994893 ) ;
#167 =( GEOMETRIC_REPRESENTATION_CONTEXT ( 3 ) GLOBAL_UNCERTAINTY_ASSIGNED_CONTEXT ( ( #143 ) ) GLOBAL_UNIT_ASSIGNED_CONTEXT ( ( #119, #211, #154 ) ) REPRESENTATION_CONTEXT ( 'NONE', 'WORKASPACE' ) );
#168 = FACE_OUTER_BOUND ( 'NONE', #196, .T. ) ;
#169 = DIRECTION ( 'NONE',  ( -3.491481338843133355E-15, 1.224646799147353207E-16, -1.000000000000000000 ) ) ;
#170 = CARTESIAN_POINT ( 'NONE',  ( 0.0000000000000000000, 0.0000000000000000000, 0.0000000000000000000 ) ) ;
#171 = APPLICATION_CONTEXT ( 'configuration controlled 3d designs of mechanical parts and assemblies' ) ;
#172 = ADVANCED_FACE ( 'NONE', ( #13, #168 ), #178, .T. ) ;
#173 = ORIENTED_EDGE ( 'NONE', *, *, #147, .F. ) ;
#174 = PERSON_AND_ORGANIZATION ( #176, #96 ) ;
#175 = FACE_OUTER_BOUND ( 'NONE', #42, .T. ) ;
#176 = PERSON ( 'UNSPECIFIED', 'UNSPECIFIED', 'UNSPECIFIED', ('UNSPECIFIED'), ('UNSPECIFIED'), ('UNSPECIFIED') ) ;
#177 = DIRECTION ( 'NONE',  ( -4.285855558155654155E-31, -1.000000000000000000, -1.227517819005651059E-16 ) ) ;
#178 = CYLINDRICAL_SURFACE ( 'NONE', #216, 1.349999999999999423 ) ;
#179 = LOCAL_TIME ( 16, 36, 18.00000000000000000, #207 ) ;
#180 = ORIENTED_EDGE ( 'NONE', *, *, #90, .T. ) ;
#181 = CARTESIAN_POINT ( 'NONE',  ( 0.0000000000000000000, 0.0000000000000000000, 0.0000000000000000000 ) ) ;
#182 = CALENDAR_DATE ( 2021, 16, 11 ) ;
#183 = AXIS2_PLACEMENT_3D ( 'NONE', #130, #215, #197 ) ;
#184 = DATE_AND_TIME ( #182, #48 ) ;
#185 = DIRECTION ( 'NONE',  ( -3.491481338843133355E-15, 1.224646799147353207E-16, -1.000000000000000000 ) ) ;
#186 = ADVANCED_FACE ( 'NONE', ( #205, #120 ), #129, .T. ) ;
#187 = CARTESIAN_POINT ( 'NONE',  ( 1.316288464743861212E-13, -4.616918432785521081E-15, 37.69999999999999574 ) ) ;
#188 = APPROVAL_PERSON_ORGANIZATION ( #70, #33, #34 ) ;
#189 = FACE_OUTER_BOUND ( 'NONE', #135, .T. ) ;
#190 = DATE_AND_TIME ( #88, #106 ) ;
#191 = DIRECTION ( 'NONE',  ( 0.0000000000000000000, 1.000000000000000000, 0.0000000000000000000 ) ) ;
#192 = DIRECTION ( 'NONE',  ( 0.0000000000000000000, 1.000000000000000000, 0.0000000000000000000 ) ) ;
#193 = PERSON_AND_ORGANIZATION ( #176, #96 ) ;
#194 = AXIS2_PLACEMENT_3D ( 'NONE', #170, #162, #145 ) ;
#195 = ORIENTED_EDGE ( 'NONE', *, *, #147, .T. ) ;
#196 = EDGE_LOOP ( 'NONE', ( #173 ) ) ;
#197 = DIRECTION ( 'NONE',  ( -4.275831445896958607E-31, -1.000000000000000000, -1.224646799147353207E-16 ) ) ;
#198 = ORIENTED_EDGE ( 'NONE', *, *, #63, .F. ) ;
#199 = DIRECTION ( 'NONE',  ( 0.0000000000000000000, 1.000000000000000000, 0.0000000000000000000 ) ) ;
#200 = CC_DESIGN_PERSON_AND_ORGANIZATION_ASSIGNMENT ( #74, #23, ( #146 ) ) ;
#201 = DIRECTION ( 'NONE',  ( -4.347078138912448306E-31, -1.000000000000000000, -1.227517819005651059E-16 ) ) ;
#202 = CIRCLE ( 'NONE', #8, 1.199999999999996847 ) ;
#203 = EDGE_LOOP ( 'NONE', ( #128 ) ) ;
#204 = DIRECTION ( 'NONE',  ( 4.275831445896958607E-31, 1.000000000000000000, 1.224646799147353207E-16 ) ) ;
#205 = FACE_OUTER_BOUND ( 'NONE', #134, .T. ) ;
#206 = ADVANCED_FACE ( 'NONE', ( #62, #81 ), #61, .F. ) ;
#207 = COORDINATED_UNIVERSAL_TIME_OFFSET ( 1, 0, .AHEAD. ) ;
#208 = COORDINATED_UNIVERSAL_TIME_OFFSET ( 1, 0, .AHEAD. ) ;
#209 = AXIS2_PLACEMENT_3D ( 'NONE', #46, #98, #49 ) ;
#210 = CC_DESIGN_APPROVAL ( #18, ( #25 ) ) ;
#211 =( NAMED_UNIT ( * ) PLANE_ANGLE_UNIT ( ) SI_UNIT ( $, .RADIAN. ) );
#212 = APPLICATION_PROTOCOL_DEFINITION ( 'international standard', 'config_control_design', 1994, #155 ) ;
#213 = ORIENTED_EDGE ( 'NONE', *, *, #30, .F. ) ;
#214 = CLOSED_SHELL ( 'NONE', ( #152, #186, #95, #206, #218 ) ) ;
#215 = DIRECTION ( 'NONE',  ( 3.491481338843133355E-15, -1.224646799147353207E-16, 1.000000000000000000 ) ) ;
#216 = AXIS2_PLACEMENT_3D ( 'NONE', #44, #15, #177 ) ;
#217 = CARTESIAN_POINT ( 'NONE',  ( 2.356749903719114699E-14, -1.350000000000000533, 6.749999999999999112 ) ) ;
#218 = ADVANCED_FACE ( 'NONE', ( #148 ), #78, .F. ) ;
#219 = ORIENTED_EDGE ( 'NONE', *, *, #90, .F. ) ;
#220 = CARTESIAN_POINT ( 'NONE',  ( 2.356749903719114699E-14, -1.350000000000000533, 6.749999999999999112 ) ) ;
#221 = DIRECTION ( 'NONE',  ( 0.0000000000000000000, -1.000000000000000000, 0.0000000000000000000 ) ) ;
#222 = CALENDAR_DATE ( 2021, 16, 11 ) ;
#223 = MANIFOLD_SOLID_BREP ( 'Corps-Déplacer/Copier1[1]', #214 ) ;
ENDSEC;
END-ISO-10303-21;
