ISO-10303-21;
HEADER;
FILE_DESCRIPTION (( 'STEP AP203' ),
    '1' );
FILE_NAME ('966102.step',
    '2021-11-16T15:36:17',
    ( '' ),
    ( '' ),
    'SwSTEP 2.0',
    'SolidWorks 2019',
    '' );
FILE_SCHEMA (( 'CONFIG_CONTROL_DESIGN' ));
ENDSEC;

DATA;
#1 = AXIS2_PLACEMENT_3D ( 'NONE', #39, #98, #104 ) ;
#2 = LOCAL_TIME ( 16, 36, 17.00000000000000000, #28 ) ;
#3 =( NAMED_UNIT ( * ) SI_UNIT ( $, .STERADIAN. ) SOLID_ANGLE_UNIT ( ) );
#4 = CC_DESIGN_PERSON_AND_ORGANIZATION_ASSIGNMENT ( #40, #216, ( #138 ) ) ;
#5 = EDGE_LOOP ( 'NONE', ( #189 ) ) ;
#6 = CIRCLE ( 'NONE', #48, 1.499999999999994893 ) ;
#7 = MANIFOLD_SOLID_BREP ( 'Corps-Déplacer/Copier1[1]', #135 ) ;
#8 = CARTESIAN_POINT ( 'NONE',  ( 2.890122169129370149E-14, -2.182083405208259899E-16, 8.277638883463094288 ) ) ;
#9 = MECHANICAL_CONTEXT ( 'NONE', #46, 'mechanical' ) ;
#10 = CC_DESIGN_PERSON_AND_ORGANIZATION_ASSIGNMENT ( #99, #53, ( #138 ) ) ;
#11 = CARTESIAN_POINT ( 'NONE',  ( -6.413731847436034514E-31, 0.0000000000000000000, -1.836965810494968570E-16 ) ) ;
#12 = CIRCLE ( 'NONE', #162, 1.300000000000000044 ) ;
#13 = DATE_TIME_ROLE ( 'creation_date' ) ;
#14 = PRODUCT_RELATED_PRODUCT_CATEGORY ( 'detail', '', ( #50 ) ) ;
#15 = CARTESIAN_POINT ( 'NONE',  ( 1.316288464743861212E-13, -4.616918432785521081E-15, 37.69999999999999574 ) ) ;
#16 = FACE_OUTER_BOUND ( 'NONE', #5, .T. ) ;
#17 = LOCAL_TIME ( 16, 36, 17.00000000000000000, #118 ) ;
#18 = VERTEX_POINT ( 'NONE', #163 ) ;
#19 = CARTESIAN_POINT ( 'NONE',  ( 1.316288464743861212E-13, 1.499999999999992228, 37.69999999999999574 ) ) ;
#20 = VERTEX_POINT ( 'NONE', #125 ) ;
#21 = APPLICATION_CONTEXT ( 'configuration controlled 3d designs of mechanical parts and assemblies' ) ;
#22 = APPROVAL_PERSON_ORGANIZATION ( #56, #119, #121 ) ;
#23 = ADVANCED_BREP_SHAPE_REPRESENTATION ( '966102', ( #7, #72, #30 ), #159 ) ;
#24 = DIRECTION ( 'NONE',  ( 0.0000000000000000000, 1.000000000000000000, 0.0000000000000000000 ) ) ;
#25 = EDGE_CURVE ( 'NONE', #87, #87, #6, .T. ) ;
#26 = FACE_OUTER_BOUND ( 'NONE', #107, .T. ) ;
#27 = EDGE_CURVE ( 'NONE', #105, #105, #122, .T. ) ;
#28 = COORDINATED_UNIVERSAL_TIME_OFFSET ( 1, 0, .AHEAD. ) ;
#29 = PERSON_AND_ORGANIZATION ( #140, #59 ) ;
#30 = AXIS2_PLACEMENT_3D ( 'NONE', #67, #69, #132 ) ;
#31 = CARTESIAN_POINT ( 'NONE',  ( 2.890122169129370149E-14, 1.499999999999994671, 8.277638883463094288 ) ) ;
#32 = CARTESIAN_POINT ( 'NONE',  ( 1.326762908760390423E-13, -4.653657836759941941E-15, 38.00000000000000000 ) ) ;
#33 = CARTESIAN_POINT ( 'NONE',  ( 1.326762908760390423E-13, -4.653657836759941941E-15, 38.00000000000000000 ) ) ;
#34 = DIRECTION ( 'NONE',  ( 3.491481338843133355E-15, -1.224646799147353207E-16, 1.000000000000000000 ) ) ;
#35 = CARTESIAN_POINT ( 'NONE',  ( 2.269462870248036365E-14, -7.978865823536730648E-16, 6.499999999999999112 ) ) ;
#36 = ORIENTED_EDGE ( 'NONE', *, *, #145, .F. ) ;
#37 = COORDINATED_UNIVERSAL_TIME_OFFSET ( 1, 0, .AHEAD. ) ;
#38 = EDGE_LOOP ( 'NONE', ( #68 ) ) ;
#39 = CARTESIAN_POINT ( 'NONE',  ( -5.571612225602345059E-31, -2.960682705174259379E-33, -1.595773164707345341E-16 ) ) ;
#40 = PERSON_AND_ORGANIZATION ( #140, #59 ) ;
#41 = AXIS2_PLACEMENT_3D ( 'NONE', #220, #139, #178 ) ;
#42 = APPROVAL ( #156, 'UNSPECIFIED' ) ;
#43 = DATE_AND_TIME ( #196, #2 ) ;
#44 = FACE_OUTER_BOUND ( 'NONE', #223, .T. ) ;
#45 = PLANE ( 'NONE',  #71 ) ;
#46 = APPLICATION_CONTEXT ( 'configuration controlled 3d designs of mechanical parts and assemblies' ) ;
#47 = DIRECTION ( 'NONE',  ( -4.347255082787467782E-31, -1.000000000000000000, -1.227517819005651059E-16 ) ) ;
#48 = AXIS2_PLACEMENT_3D ( 'NONE', #8, #153, #24 ) ;
#49 = DIRECTION ( 'NONE',  ( 0.0000000000000000000, -1.000000000000000000, 0.0000000000000000000 ) ) ;
#50 = PRODUCT ( '966102', '966102', '', ( #9 ) ) ;
#51 = ORIENTED_EDGE ( 'NONE', *, *, #27, .T. ) ;
#52 = AXIS2_PLACEMENT_3D ( 'NONE', #126, #34, #76 ) ;
#53 = PERSON_AND_ORGANIZATION_ROLE ( 'design_supplier' ) ;
#54 = CIRCLE ( 'NONE', #151, 1.199999999999996847 ) ;
#55 = LOCAL_TIME ( 16, 36, 17.00000000000000000, #157 ) ;
#56 = PERSON_AND_ORGANIZATION ( #140, #59 ) ;
#57 = DATE_TIME_ROLE ( 'classification_date' ) ;
#58 = DIRECTION ( 'NONE',  ( -3.491481338843133355E-15, 1.224646799147353207E-16, -1.000000000000000000 ) ) ;
#59 = ORGANIZATION ( 'UNSPECIFIED', 'UNSPECIFIED', '' ) ;
#60 = CC_DESIGN_APPROVAL ( #42, ( #138 ) ) ;
#61 = DIRECTION ( 'NONE',  ( 3.491481338843133355E-15, -1.227517819005651059E-16, 1.000000000000000000 ) ) ;
#62 = FACE_OUTER_BOUND ( 'NONE', #63, .T. ) ;
#63 = EDGE_LOOP ( 'NONE', ( #182 ) ) ;
#64 = FACE_OUTER_BOUND ( 'NONE', #83, .T. ) ;
#65 = CC_DESIGN_DATE_AND_TIME_ASSIGNMENT ( #219, #57, ( #207 ) ) ;
#66 = ADVANCED_FACE ( 'NONE', ( #191, #26 ), #154, .T. ) ;
#67 = CARTESIAN_POINT ( 'NONE',  ( 0.0000000000000000000, 0.0000000000000000000, 0.0000000000000000000 ) ) ;
#68 = ORIENTED_EDGE ( 'NONE', *, *, #145, .T. ) ;
#69 = DIRECTION ( 'NONE',  ( 0.0000000000000000000, 0.0000000000000000000, 1.000000000000000000 ) ) ;
#70 = DIRECTION ( 'NONE',  ( 3.491481338843133355E-15, -1.227517819005651059E-16, 1.000000000000000000 ) ) ;
#71 = AXIS2_PLACEMENT_3D ( 'NONE', #203, #209, #136 ) ;
#72 = MANIFOLD_SOLID_BREP ( 'Corps-Déplacer/Copier1[2]', #168 ) ;
#73 = ADVANCED_FACE ( 'NONE', ( #215 ), #174, .F. ) ;
#74 = FACE_OUTER_BOUND ( 'NONE', #173, .T. ) ;
#75 = AXIS2_PLACEMENT_3D ( 'NONE', #11, #70, #85 ) ;
#76 = DIRECTION ( 'NONE',  ( -4.275831445896958607E-31, -1.000000000000000000, -1.224646799147353207E-16 ) ) ;
#77 = ORIENTED_EDGE ( 'NONE', *, *, #195, .T. ) ;
#78 = VERTEX_POINT ( 'NONE', #142 ) ;
#79 = APPROVAL ( #187, 'UNSPECIFIED' ) ;
#80 = DIRECTION ( 'NONE',  ( 0.0000000000000000000, 1.000000000000000000, 0.0000000000000000000 ) ) ;
#81 = DATE_AND_TIME ( #130, #193 ) ;
#82 = EDGE_LOOP ( 'NONE', ( #164 ) ) ;
#83 = EDGE_LOOP ( 'NONE', ( #95 ) ) ;
#84 = AXIS2_PLACEMENT_3D ( 'NONE', #88, #165, #106 ) ;
#85 = DIRECTION ( 'NONE',  ( -4.285855558155652404E-31, -1.000000000000000000, -1.227517819005651059E-16 ) ) ;
#86 = DESIGN_CONTEXT ( 'detailed design', #21, 'design' ) ;
#87 = VERTEX_POINT ( 'NONE', #31 ) ;
#88 = CARTESIAN_POINT ( 'NONE',  ( -4.275811853558651348E-31, 1.499752910594655314E-32, -1.224641187678636516E-16 ) ) ;
#89 = AXIS2_PLACEMENT_3D ( 'NONE', #103, #143, #47 ) ;
#90 = ORIENTED_EDGE ( 'NONE', *, *, #25, .F. ) ;
#91 = CARTESIAN_POINT ( 'NONE',  ( 2.269462870248036365E-14, -1.300000000000000711, 6.499999999999999112 ) ) ;
#92 = ORIENTED_EDGE ( 'NONE', *, *, #25, .T. ) ;
#93 = PERSON_AND_ORGANIZATION ( #140, #59 ) ;
#94 = PERSON_AND_ORGANIZATION ( #140, #59 ) ;
#95 = ORIENTED_EDGE ( 'NONE', *, *, #175, .T. ) ;
#96 = CC_DESIGN_APPROVAL ( #119, ( #207 ) ) ;
#97 = CC_DESIGN_PERSON_AND_ORGANIZATION_ASSIGNMENT ( #217, #197, ( #207 ) ) ;
#98 = DIRECTION ( 'NONE',  ( 3.491481338843133355E-15, -1.227517819005651059E-16, 1.000000000000000000 ) ) ;
#99 = PERSON_AND_ORGANIZATION ( #140, #59 ) ;
#100 = CIRCLE ( 'NONE', #115, 1.499999999999996669 ) ;
#101 = UNCERTAINTY_MEASURE_WITH_UNIT (LENGTH_MEASURE( 1.000000000000000082E-05 ), #208, 'distance_accuracy_value', 'NONE');
#102 = APPROVAL_DATE_TIME ( #214, #42 ) ;
#103 = CARTESIAN_POINT ( 'NONE',  ( 2.269462870248036365E-14, 0.0000000000000000000, 6.499999999999999112 ) ) ;
#104 = DIRECTION ( 'NONE',  ( -4.285855558155652404E-31, -1.000000000000000000, -1.227517819005651059E-16 ) ) ;
#105 = VERTEX_POINT ( 'NONE', #91 ) ;
#106 = DIRECTION ( 'NONE',  ( -4.275831445896958607E-31, -1.000000000000000000, -1.224646799147353207E-16 ) ) ;
#107 = EDGE_LOOP ( 'NONE', ( #212 ) ) ;
#108 = CALENDAR_DATE ( 2021, 16, 11 ) ;
#109 = APPROVAL_DATE_TIME ( #149, #119 ) ;
#110 = APPLICATION_PROTOCOL_DEFINITION ( 'international standard', 'config_control_design', 1994, #21 ) ;
#111 = EDGE_CURVE ( 'NONE', #18, #18, #144, .T. ) ;
#112 = PERSON_AND_ORGANIZATION ( #140, #59 ) ;
#113 = CC_DESIGN_PERSON_AND_ORGANIZATION_ASSIGNMENT ( #93, #167, ( #50 ) ) ;
#114 = EDGE_LOOP ( 'NONE', ( #77 ) ) ;
#115 = AXIS2_PLACEMENT_3D ( 'NONE', #15, #58, #80 ) ;
#116 = DIRECTION ( 'NONE',  ( -3.491481338843133355E-15, 1.224646799147353207E-16, -1.000000000000000000 ) ) ;
#117 = SECURITY_CLASSIFICATION_LEVEL ( 'unclassified' ) ;
#118 = COORDINATED_UNIVERSAL_TIME_OFFSET ( 1, 0, .AHEAD. ) ;
#119 = APPROVAL ( #120, 'UNSPECIFIED' ) ;
#120 = APPROVAL_STATUS ( 'not_yet_approved' ) ;
#121 = APPROVAL_ROLE ( '' ) ;
#122 = CIRCLE ( 'NONE', #137, 1.300000000000000044 ) ;
#123 = DIRECTION ( 'NONE',  ( 0.0000000000000000000, -1.000000000000000000, 0.0000000000000000000 ) ) ;
#124 = DIRECTION ( 'NONE',  ( -3.491481338843133355E-15, 1.224646799147353207E-16, -1.000000000000000000 ) ) ;
#125 = CARTESIAN_POINT ( 'NONE',  ( 1.326762908760390423E-13, 1.199999999999992406, 38.00000000000000000 ) ) ;
#126 = CARTESIAN_POINT ( 'NONE',  ( 2.269462870248036681E-14, 1.124819836996386774E-32, 6.500000000000000000 ) ) ;
#127 = FACE_OUTER_BOUND ( 'NONE', #169, .T. ) ;
#128 = APPROVAL_ROLE ( '' ) ;
#129 = ADVANCED_FACE ( 'NONE', ( #127, #44 ), #198, .F. ) ;
#130 = CALENDAR_DATE ( 2021, 16, 11 ) ;
#131 = EDGE_LOOP ( 'NONE', ( #150 ) ) ;
#132 = DIRECTION ( 'NONE',  ( 1.000000000000000000, 0.0000000000000000000, 0.0000000000000000000 ) ) ;
#133 = CC_DESIGN_SECURITY_CLASSIFICATION ( #207, ( #138 ) ) ;
#134 = CARTESIAN_POINT ( 'NONE',  ( 1.326762908760390423E-13, 8.998558695971053960E-33, 38.00000000000000000 ) ) ;
#135 = CLOSED_SHELL ( 'NONE', ( #177, #158, #73, #129, #211 ) ) ;
#136 = DIRECTION ( 'NONE',  ( -4.275831445896958607E-31, -1.000000000000000000, -1.224646799147353207E-16 ) ) ;
#137 = AXIS2_PLACEMENT_3D ( 'NONE', #148, #213, #49 ) ;
#138 = PRODUCT_DEFINITION_FORMATION_WITH_SPECIFIED_SOURCE ( 'ANY', '', #50, .NOT_KNOWN. ) ;
#139 = DIRECTION ( 'NONE',  ( -3.491481338843133355E-15, 1.224646799147353207E-16, -1.000000000000000000 ) ) ;
#140 = PERSON ( 'UNSPECIFIED', 'UNSPECIFIED', 'UNSPECIFIED', ('UNSPECIFIED'), ('UNSPECIFIED'), ('UNSPECIFIED') ) ;
#141 = FACE_BOUND ( 'NONE', #38, .T. ) ;
#142 = CARTESIAN_POINT ( 'NONE',  ( 2.269462870248036365E-14, -1.300000000000000711, 6.499999999999999112 ) ) ;
#143 = DIRECTION ( 'NONE',  ( 3.491481338843133355E-15, -1.227517819005651059E-16, 1.000000000000000000 ) ) ;
#144 = CIRCLE ( 'NONE', #1, 1.299999999999999156 ) ;
#145 = EDGE_CURVE ( 'NONE', #20, #20, #54, .T. ) ;
#146 = APPROVAL_DATE_TIME ( #81, #79 ) ;
#147 = PRODUCT_DEFINITION_SHAPE ( 'NONE', 'NONE',  #202 ) ;
#148 = CARTESIAN_POINT ( 'NONE',  ( 2.269462870248036365E-14, -7.978865823536730648E-16, 6.499999999999999112 ) ) ;
#149 = DATE_AND_TIME ( #179, #172 ) ;
#150 = ORIENTED_EDGE ( 'NONE', *, *, #111, .T. ) ;
#151 = AXIS2_PLACEMENT_3D ( 'NONE', #32, #124, #181 ) ;
#152 = SHAPE_DEFINITION_REPRESENTATION ( #147, #23 ) ;
#153 = DIRECTION ( 'NONE',  ( -3.491481338843133355E-15, 1.227517819005651059E-16, -1.000000000000000000 ) ) ;
#154 = CYLINDRICAL_SURFACE ( 'NONE', #75, 1.299999999999999600 ) ;
#155 = CC_DESIGN_PERSON_AND_ORGANIZATION_ASSIGNMENT ( #94, #170, ( #202 ) ) ;
#156 = APPROVAL_STATUS ( 'not_yet_approved' ) ;
#157 = COORDINATED_UNIVERSAL_TIME_OFFSET ( 1, 0, .AHEAD. ) ;
#158 = ADVANCED_FACE ( 'NONE', ( #180, #141 ), #210, .T. ) ;
#159 =( GEOMETRIC_REPRESENTATION_CONTEXT ( 3 ) GLOBAL_UNCERTAINTY_ASSIGNED_CONTEXT ( ( #101 ) ) GLOBAL_UNIT_ASSIGNED_CONTEXT ( ( #208, #186, #3 ) ) REPRESENTATION_CONTEXT ( 'NONE', 'WORKASPACE' ) );
#160 = VERTEX_POINT ( 'NONE', #19 ) ;
#161 = CC_DESIGN_DATE_AND_TIME_ASSIGNMENT ( #43, #13, ( #202 ) ) ;
#162 = AXIS2_PLACEMENT_3D ( 'NONE', #35, #61, #123 ) ;
#163 = CARTESIAN_POINT ( 'NONE',  ( -1.114322445120469012E-30, -1.299999999999999156, -3.191546329414690682E-16 ) ) ;
#164 = ORIENTED_EDGE ( 'NONE', *, *, #175, .F. ) ;
#165 = DIRECTION ( 'NONE',  ( 3.491481338843133355E-15, -1.224646799147353207E-16, 1.000000000000000000 ) ) ;
#166 = FACE_OUTER_BOUND ( 'NONE', #114, .T. ) ;
#167 = PERSON_AND_ORGANIZATION_ROLE ( 'design_owner' ) ;
#168 = CLOSED_SHELL ( 'NONE', ( #206, #66, #171 ) ) ;
#169 = EDGE_LOOP ( 'NONE', ( #51 ) ) ;
#170 = PERSON_AND_ORGANIZATION_ROLE ( 'creator' ) ;
#171 = ADVANCED_FACE ( 'NONE', ( #62 ), #221, .F. ) ;
#172 = LOCAL_TIME ( 16, 36, 17.00000000000000000, #201 ) ;
#173 = EDGE_LOOP ( 'NONE', ( #90 ) ) ;
#174 = PLANE ( 'NONE',  #192 ) ;
#175 = EDGE_CURVE ( 'NONE', #160, #160, #100, .T. ) ;
#176 = APPROVAL_PERSON_ORGANIZATION ( #29, #42, #199 ) ;
#177 = ADVANCED_FACE ( 'NONE', ( #64, #74 ), #184, .T. ) ;
#178 = DIRECTION ( 'NONE',  ( 4.275831445896958607E-31, 1.000000000000000000, 1.224646799147353207E-16 ) ) ;
#179 = CALENDAR_DATE ( 2021, 16, 11 ) ;
#180 = FACE_OUTER_BOUND ( 'NONE', #82, .T. ) ;
#181 = DIRECTION ( 'NONE',  ( 0.0000000000000000000, 1.000000000000000000, 0.0000000000000000000 ) ) ;
#182 = ORIENTED_EDGE ( 'NONE', *, *, #111, .F. ) ;
#183 = AXIS2_PLACEMENT_3D ( 'NONE', #33, #222, #205 ) ;
#184 = CYLINDRICAL_SURFACE ( 'NONE', #41, 1.499999999999994893 ) ;
#185 = EDGE_LOOP ( 'NONE', ( #36 ) ) ;
#186 =( NAMED_UNIT ( * ) PLANE_ANGLE_UNIT ( ) SI_UNIT ( $, .RADIAN. ) );
#187 = APPROVAL_STATUS ( 'not_yet_approved' ) ;
#188 = APPROVAL_PERSON_ORGANIZATION ( #112, #79, #128 ) ;
#189 = ORIENTED_EDGE ( 'NONE', *, *, #27, .F. ) ;
#190 = APPLICATION_PROTOCOL_DEFINITION ( 'international standard', 'config_control_design', 1994, #46 ) ;
#191 = FACE_OUTER_BOUND ( 'NONE', #131, .T. ) ;
#192 = AXIS2_PLACEMENT_3D ( 'NONE', #134, #116, #194 ) ;
#193 = LOCAL_TIME ( 16, 36, 17.00000000000000000, #37 ) ;
#194 = DIRECTION ( 'NONE',  ( 4.275831445896958607E-31, 1.000000000000000000, 1.224646799147353207E-16 ) ) ;
#195 = EDGE_CURVE ( 'NONE', #78, #78, #12, .T. ) ;
#196 = CALENDAR_DATE ( 2021, 16, 11 ) ;
#197 = PERSON_AND_ORGANIZATION_ROLE ( 'classification_officer' ) ;
#198 = TOROIDAL_SURFACE ( 'NONE', #89, 9.299999999999998934, 8.000000000000000000 ) ;
#199 = APPROVAL_ROLE ( '' ) ;
#200 = CALENDAR_DATE ( 2021, 16, 11 ) ;
#201 = COORDINATED_UNIVERSAL_TIME_OFFSET ( 1, 0, .AHEAD. ) ;
#202 = PRODUCT_DEFINITION ( 'UNKNOWN', '', #138, #86 ) ;
#203 = CARTESIAN_POINT ( 'NONE',  ( 2.269462870248036681E-14, 1.124819836996386774E-32, 6.500000000000000000 ) ) ;
#204 = PLANE ( 'NONE',  #52 ) ;
#205 = DIRECTION ( 'NONE',  ( 0.0000000000000000000, 1.000000000000000000, 0.0000000000000000000 ) ) ;
#206 = ADVANCED_FACE ( 'NONE', ( #166 ), #204, .T. ) ;
#207 = SECURITY_CLASSIFICATION ( '', '', #117 ) ;
#208 =( LENGTH_UNIT ( ) NAMED_UNIT ( * ) SI_UNIT ( .MILLI., .METRE. ) );
#209 = DIRECTION ( 'NONE',  ( 3.491481338843133355E-15, -1.224646799147353207E-16, 1.000000000000000000 ) ) ;
#210 = CONICAL_SURFACE ( 'NONE', #183, 1.199999999999996847, 0.7853981633974453924 ) ;
#211 = ADVANCED_FACE ( 'NONE', ( #16 ), #45, .F. ) ;
#212 = ORIENTED_EDGE ( 'NONE', *, *, #195, .F. ) ;
#213 = DIRECTION ( 'NONE',  ( 3.491481338843133355E-15, -1.227517819005651059E-16, 1.000000000000000000 ) ) ;
#214 = DATE_AND_TIME ( #200, #17 ) ;
#215 = FACE_OUTER_BOUND ( 'NONE', #185, .T. ) ;
#216 = PERSON_AND_ORGANIZATION_ROLE ( 'creator' ) ;
#217 = PERSON_AND_ORGANIZATION ( #140, #59 ) ;
#218 = CC_DESIGN_APPROVAL ( #79, ( #202 ) ) ;
#219 = DATE_AND_TIME ( #108, #55 ) ;
#220 = CARTESIAN_POINT ( 'NONE',  ( 0.0000000000000000000, 0.0000000000000000000, 0.0000000000000000000 ) ) ;
#221 = PLANE ( 'NONE',  #84 ) ;
#222 = DIRECTION ( 'NONE',  ( -3.491481338843133355E-15, 1.224646799147353207E-16, -1.000000000000000000 ) ) ;
#223 = EDGE_LOOP ( 'NONE', ( #92 ) ) ;
ENDSEC;
END-ISO-10303-21;
