ISO-10303-21;
HEADER;
FILE_DESCRIPTION (( 'STEP AP203' ),
    '1' );
FILE_NAME ('966101.step',
    '2021-11-16T15:36:16',
    ( '' ),
    ( '' ),
    'SwSTEP 2.0',
    'SolidWorks 2019',
    '' );
FILE_SCHEMA (( 'CONFIG_CONTROL_DESIGN' ));
ENDSEC;

DATA;
#1 = CALENDAR_DATE ( 2021, 16, 11 ) ;
#2 = CONICAL_SURFACE ( 'NONE', #50, 1.199999999999996847, 0.7853981633974453924 ) ;
#3 = DIRECTION ( 'NONE',  ( -3.491481338843133355E-15, 1.224646799147353207E-16, -1.000000000000000000 ) ) ;
#4 = EDGE_LOOP ( 'NONE', ( #59 ) ) ;
#5 = DIRECTION ( 'NONE',  ( 3.491481338843133355E-15, -1.227517819005651059E-16, 1.000000000000000000 ) ) ;
#6 = CARTESIAN_POINT ( 'NONE',  ( 2.094888803305880013E-14, 1.124819836996386911E-32, 6.000000000000000000 ) ) ;
#7 = CYLINDRICAL_SURFACE ( 'NONE', #68, 1.199999999999999734 ) ;
#8 = EDGE_LOOP ( 'NONE', ( #80 ) ) ;
#9 = PLANE ( 'NONE',  #29 ) ;
#10 = DIRECTION ( 'NONE',  ( 3.491481338843133355E-15, -1.224646799147353207E-16, 1.000000000000000000 ) ) ;
#11 = APPROVAL_DATE_TIME ( #138, #147 ) ;
#12 =( NAMED_UNIT ( * ) SI_UNIT ( $, .STERADIAN. ) SOLID_ANGLE_UNIT ( ) );
#13 = DIRECTION ( 'NONE',  ( 0.0000000000000000000, -1.000000000000000000, 0.0000000000000000000 ) ) ;
#14 = CALENDAR_DATE ( 2021, 16, 11 ) ;
#15 = APPROVAL_DATE_TIME ( #104, #73 ) ;
#16 = ADVANCED_FACE ( 'NONE', ( #217 ), #155, .F. ) ;
#17 = COORDINATED_UNIVERSAL_TIME_OFFSET ( 1, 0, .AHEAD. ) ;
#18 = CLOSED_SHELL ( 'NONE', ( #159, #113, #181 ) ) ;
#19 = LOCAL_TIME ( 16, 36, 16.00000000000000000, #174 ) ;
#20 = CC_DESIGN_DATE_AND_TIME_ASSIGNMENT ( #100, #191, ( #84 ) ) ;
#21 = FACE_OUTER_BOUND ( 'NONE', #95, .T. ) ;
#22 = PLANE ( 'NONE',  #51 ) ;
#23 = EDGE_LOOP ( 'NONE', ( #183 ) ) ;
#24 = CC_DESIGN_DATE_AND_TIME_ASSIGNMENT ( #197, #215, ( #178 ) ) ;
#25 = DIRECTION ( 'NONE',  ( -3.491481338843133355E-15, 1.224646799147353207E-16, -1.000000000000000000 ) ) ;
#26 = EDGE_LOOP ( 'NONE', ( #187 ) ) ;
#27 = CARTESIAN_POINT ( 'NONE',  ( 0.0000000000000000000, 0.0000000000000000000, 0.0000000000000000000 ) ) ;
#28 = COORDINATED_UNIVERSAL_TIME_OFFSET ( 1, 0, .AHEAD. ) ;
#29 = AXIS2_PLACEMENT_3D ( 'NONE', #93, #203, #128 ) ;
#30 = PERSON_AND_ORGANIZATION ( #33, #39 ) ;
#31 = CARTESIAN_POINT ( 'NONE',  ( 1.326762908760390423E-13, 8.998558695971053960E-33, 38.00000000000000000 ) ) ;
#32 = PERSON_AND_ORGANIZATION ( #33, #39 ) ;
#33 = PERSON ( 'UNSPECIFIED', 'UNSPECIFIED', 'UNSPECIFIED', ('UNSPECIFIED'), ('UNSPECIFIED'), ('UNSPECIFIED') ) ;
#34 = APPROVAL_ROLE ( '' ) ;
#35 = APPROVAL_STATUS ( 'not_yet_approved' ) ;
#36 = COORDINATED_UNIVERSAL_TIME_OFFSET ( 1, 0, .AHEAD. ) ;
#37 = CC_DESIGN_PERSON_AND_ORGANIZATION_ASSIGNMENT ( #45, #46, ( #141 ) ) ;
#38 = DIRECTION ( 'NONE',  ( -4.347612056767884799E-31, -1.000000000000000000, -1.227517819005651059E-16 ) ) ;
#39 = ORGANIZATION ( 'UNSPECIFIED', 'UNSPECIFIED', '' ) ;
#40 = ADVANCED_BREP_SHAPE_REPRESENTATION ( '966101', ( #160, #163, #86 ), #55 ) ;
#41 = ORIENTED_EDGE ( 'NONE', *, *, #106, .T. ) ;
#42 = ORIENTED_EDGE ( 'NONE', *, *, #123, .F. ) ;
#43 = DIRECTION ( 'NONE',  ( 3.491481338843133355E-15, -1.227517819005651059E-16, 1.000000000000000000 ) ) ;
#44 = DIRECTION ( 'NONE',  ( -3.491481338843133355E-15, 1.224646799147353207E-16, -1.000000000000000000 ) ) ;
#45 = PERSON_AND_ORGANIZATION ( #33, #39 ) ;
#46 = PERSON_AND_ORGANIZATION_ROLE ( 'design_owner' ) ;
#47 = LOCAL_TIME ( 16, 36, 16.00000000000000000, #17 ) ;
#48 = APPROVAL_STATUS ( 'not_yet_approved' ) ;
#49 = CARTESIAN_POINT ( 'NONE',  ( 2.094888803305879698E-14, -7.365106914033905366E-16, 5.999999999999999112 ) ) ;
#50 = AXIS2_PLACEMENT_3D ( 'NONE', #201, #44, #165 ) ;
#51 = AXIS2_PLACEMENT_3D ( 'NONE', #6, #149, #151 ) ;
#52 = ADVANCED_FACE ( 'NONE', ( #190 ), #207, .F. ) ;
#53 = CARTESIAN_POINT ( 'NONE',  ( -6.413731847436034514E-31, 0.0000000000000000000, -1.836965810494968570E-16 ) ) ;
#54 = DIRECTION ( 'NONE',  ( 0.0000000000000000000, 1.000000000000000000, 0.0000000000000000000 ) ) ;
#55 =( GEOMETRIC_REPRESENTATION_CONTEXT ( 3 ) GLOBAL_UNCERTAINTY_ASSIGNED_CONTEXT ( ( #144 ) ) GLOBAL_UNIT_ASSIGNED_CONTEXT ( ( #66, #70, #12 ) ) REPRESENTATION_CONTEXT ( 'NONE', 'WORKASPACE' ) );
#56 = PRODUCT_RELATED_PRODUCT_CATEGORY ( 'detail', '', ( #141 ) ) ;
#57 = ORIENTED_EDGE ( 'NONE', *, *, #123, .T. ) ;
#58 = DIRECTION ( 'NONE',  ( -3.491481338843133355E-15, 1.227517819005651059E-16, -1.000000000000000000 ) ) ;
#59 = ORIENTED_EDGE ( 'NONE', *, *, #62, .T. ) ;
#60 = DIRECTION ( 'NONE',  ( 0.0000000000000000000, -1.000000000000000000, 0.0000000000000000000 ) ) ;
#61 = AXIS2_PLACEMENT_3D ( 'NONE', #182, #97, #38 ) ;
#62 = EDGE_CURVE ( 'NONE', #114, #114, #115, .T. ) ;
#63 = CARTESIAN_POINT ( 'NONE',  ( 1.316288464743861212E-13, 1.499999999999992228, 37.69999999999999574 ) ) ;
#64 = EDGE_LOOP ( 'NONE', ( #42 ) ) ;
#65 = VERTEX_POINT ( 'NONE', #137 ) ;
#66 =( LENGTH_UNIT ( ) NAMED_UNIT ( * ) SI_UNIT ( .MILLI., .METRE. ) );
#67 = CC_DESIGN_PERSON_AND_ORGANIZATION_ASSIGNMENT ( #156, #154, ( #69 ) ) ;
#68 = AXIS2_PLACEMENT_3D ( 'NONE', #53, #43, #200 ) ;
#69 = PRODUCT_DEFINITION_FORMATION_WITH_SPECIFIED_SOURCE ( 'ANY', '', #141, .NOT_KNOWN. ) ;
#70 =( NAMED_UNIT ( * ) PLANE_ANGLE_UNIT ( ) SI_UNIT ( $, .RADIAN. ) );
#71 = FACE_OUTER_BOUND ( 'NONE', #136, .T. ) ;
#72 = PERSON_AND_ORGANIZATION ( #33, #39 ) ;
#73 = APPROVAL ( #122, 'UNSPECIFIED' ) ;
#74 = APPROVAL_DATE_TIME ( #108, #219 ) ;
#75 = CIRCLE ( 'NONE', #133, 1.199999999999999289 ) ;
#76 = ADVANCED_FACE ( 'NONE', ( #85, #71 ), #196, .T. ) ;
#77 = AXIS2_PLACEMENT_3D ( 'NONE', #157, #10, #124 ) ;
#78 = APPROVAL_PERSON_ORGANIZATION ( #30, #147, #173 ) ;
#79 = FACE_OUTER_BOUND ( 'NONE', #4, .T. ) ;
#80 = ORIENTED_EDGE ( 'NONE', *, *, #198, .T. ) ;
#81 = DIRECTION ( 'NONE',  ( 4.275831445896958607E-31, 1.000000000000000000, 1.224646799147353207E-16 ) ) ;
#82 = AXIS2_PLACEMENT_3D ( 'NONE', #31, #209, #139 ) ;
#83 = CARTESIAN_POINT ( 'NONE',  ( -1.028605333957356402E-30, -1.199999999999999289, -2.946042765613560667E-16 ) ) ;
#84 = PRODUCT_DEFINITION ( 'UNKNOWN', '', #69, #127 ) ;
#85 = FACE_OUTER_BOUND ( 'NONE', #168, .T. ) ;
#86 = AXIS2_PLACEMENT_3D ( 'NONE', #121, #102, #153 ) ;
#87 = APPROVAL_PERSON_ORGANIZATION ( #72, #219, #177 ) ;
#88 = VERTEX_POINT ( 'NONE', #83 ) ;
#89 = PERSON_AND_ORGANIZATION ( #33, #39 ) ;
#90 = PRODUCT_DEFINITION_SHAPE ( 'NONE', 'NONE',  #84 ) ;
#91 = LOCAL_TIME ( 16, 36, 16.00000000000000000, #116 ) ;
#92 = APPLICATION_CONTEXT ( 'configuration controlled 3d designs of mechanical parts and assemblies' ) ;
#93 = CARTESIAN_POINT ( 'NONE',  ( -4.275811853558651348E-31, 1.499752910594655314E-32, -1.224641187678636516E-16 ) ) ;
#94 = CARTESIAN_POINT ( 'NONE',  ( 2.094888803305879698E-14, -7.365106914033905366E-16, 5.999999999999999112 ) ) ;
#95 = EDGE_LOOP ( 'NONE', ( #152 ) ) ;
#96 = FACE_OUTER_BOUND ( 'NONE', #202, .T. ) ;
#97 = DIRECTION ( 'NONE',  ( 3.491481338843133355E-15, -1.227517819005651059E-16, 1.000000000000000000 ) ) ;
#98 = EDGE_LOOP ( 'NONE', ( #132 ) ) ;
#99 = CARTESIAN_POINT ( 'NONE',  ( 1.316288464743861212E-13, -4.616918432785521081E-15, 37.69999999999999574 ) ) ;
#100 = DATE_AND_TIME ( #101, #218 ) ;
#101 = CALENDAR_DATE ( 2021, 16, 11 ) ;
#102 = DIRECTION ( 'NONE',  ( 0.0000000000000000000, 0.0000000000000000000, 1.000000000000000000 ) ) ;
#103 = AXIS2_PLACEMENT_3D ( 'NONE', #99, #25, #111 ) ;
#104 = DATE_AND_TIME ( #189, #91 ) ;
#105 = CALENDAR_DATE ( 2021, 16, 11 ) ;
#106 = EDGE_CURVE ( 'NONE', #88, #88, #75, .T. ) ;
#107 = CC_DESIGN_SECURITY_CLASSIFICATION ( #178, ( #69 ) ) ;
#108 = DATE_AND_TIME ( #1, #47 ) ;
#109 = AXIS2_PLACEMENT_3D ( 'NONE', #216, #58, #169 ) ;
#110 = CC_DESIGN_PERSON_AND_ORGANIZATION_ASSIGNMENT ( #89, #117, ( #84 ) ) ;
#111 = DIRECTION ( 'NONE',  ( 0.0000000000000000000, 1.000000000000000000, 0.0000000000000000000 ) ) ;
#112 = ORIENTED_EDGE ( 'NONE', *, *, #188, .T. ) ;
#113 = ADVANCED_FACE ( 'NONE', ( #180, #21 ), #7, .T. ) ;
#114 = VERTEX_POINT ( 'NONE', #186 ) ;
#115 = CIRCLE ( 'NONE', #194, 1.200000000000000400 ) ;
#116 = COORDINATED_UNIVERSAL_TIME_OFFSET ( 1, 0, .AHEAD. ) ;
#117 = PERSON_AND_ORGANIZATION_ROLE ( 'creator' ) ;
#118 = CIRCLE ( 'NONE', #109, 1.499999999999994893 ) ;
#119 = PERSON_AND_ORGANIZATION ( #33, #39 ) ;
#120 = DIRECTION ( 'NONE',  ( 3.491481338843133355E-15, -1.227517819005651059E-16, 1.000000000000000000 ) ) ;
#121 = CARTESIAN_POINT ( 'NONE',  ( 0.0000000000000000000, 0.0000000000000000000, 0.0000000000000000000 ) ) ;
#122 = APPROVAL_STATUS ( 'not_yet_approved' ) ;
#123 = EDGE_CURVE ( 'NONE', #192, #192, #161, .T. ) ;
#124 = DIRECTION ( 'NONE',  ( -4.275831445896958607E-31, -1.000000000000000000, -1.224646799147353207E-16 ) ) ;
#125 = CLOSED_SHELL ( 'NONE', ( #76, #145, #52, #140, #16 ) ) ;
#126 = LOCAL_TIME ( 16, 36, 16.00000000000000000, #36 ) ;
#127 = DESIGN_CONTEXT ( 'detailed design', #134, 'design' ) ;
#128 = DIRECTION ( 'NONE',  ( -4.275831445896958607E-31, -1.000000000000000000, -1.224646799147353207E-16 ) ) ;
#129 = DIRECTION ( 'NONE',  ( -3.491481338843133355E-15, 1.224646799147353207E-16, -1.000000000000000000 ) ) ;
#130 = EDGE_LOOP ( 'NONE', ( #41 ) ) ;
#131 = CARTESIAN_POINT ( 'NONE',  ( 1.326762908760390423E-13, -4.653657836759941941E-15, 38.00000000000000000 ) ) ;
#132 = ORIENTED_EDGE ( 'NONE', *, *, #188, .F. ) ;
#133 = AXIS2_PLACEMENT_3D ( 'NONE', #146, #167, #184 ) ;
#134 = APPLICATION_CONTEXT ( 'configuration controlled 3d designs of mechanical parts and assemblies' ) ;
#135 = CARTESIAN_POINT ( 'NONE',  ( 2.852628742434047875E-14, 1.499999999999994671, 8.170253441421049700 ) ) ;
#136 = EDGE_LOOP ( 'NONE', ( #150 ) ) ;
#137 = CARTESIAN_POINT ( 'NONE',  ( 2.094888803305879698E-14, -1.200000000000001066, 5.999999999999999112 ) ) ;
#138 = DATE_AND_TIME ( #14, #19 ) ;
#139 = DIRECTION ( 'NONE',  ( 4.275831445896958607E-31, 1.000000000000000000, 1.224646799147353207E-16 ) ) ;
#140 = ADVANCED_FACE ( 'NONE', ( #96, #205 ), #212, .F. ) ;
#141 = PRODUCT ( '966101', '966101', '', ( #210 ) ) ;
#142 = AXIS2_PLACEMENT_3D ( 'NONE', #94, #5, #60 ) ;
#143 = CC_DESIGN_APPROVAL ( #219, ( #178 ) ) ;
#144 = UNCERTAINTY_MEASURE_WITH_UNIT (LENGTH_MEASURE( 1.000000000000000082E-05 ), #66, 'distance_accuracy_value', 'NONE');
#145 = ADVANCED_FACE ( 'NONE', ( #164, #162 ), #2, .T. ) ;
#146 = CARTESIAN_POINT ( 'NONE',  ( -5.143026669786782009E-31, -4.467482701150645333E-33, -1.473021382806780334E-16 ) ) ;
#147 = APPROVAL ( #48, 'UNSPECIFIED' ) ;
#148 = FACE_OUTER_BOUND ( 'NONE', #166, .T. ) ;
#149 = DIRECTION ( 'NONE',  ( 3.491481338843133355E-15, -1.224646799147353207E-16, 1.000000000000000000 ) ) ;
#150 = ORIENTED_EDGE ( 'NONE', *, *, #179, .F. ) ;
#151 = DIRECTION ( 'NONE',  ( -4.275831445896958607E-31, -1.000000000000000000, -1.224646799147353207E-16 ) ) ;
#152 = ORIENTED_EDGE ( 'NONE', *, *, #62, .F. ) ;
#153 = DIRECTION ( 'NONE',  ( 1.000000000000000000, 0.0000000000000000000, 0.0000000000000000000 ) ) ;
#154 = PERSON_AND_ORGANIZATION_ROLE ( 'creator' ) ;
#155 = PLANE ( 'NONE',  #77 ) ;
#156 = PERSON_AND_ORGANIZATION ( #33, #39 ) ;
#157 = CARTESIAN_POINT ( 'NONE',  ( 2.094888803305880013E-14, 1.124819836996386911E-32, 6.000000000000000000 ) ) ;
#158 = CARTESIAN_POINT ( 'NONE',  ( 1.326762908760390423E-13, 1.199999999999992406, 38.00000000000000000 ) ) ;
#159 = ADVANCED_FACE ( 'NONE', ( #79 ), #22, .T. ) ;
#160 = MANIFOLD_SOLID_BREP ( 'Corps-Déplacer/Copier1[1]', #125 ) ;
#161 = CIRCLE ( 'NONE', #103, 1.499999999999996669 ) ;
#162 = FACE_BOUND ( 'NONE', #8, .T. ) ;
#163 = MANIFOLD_SOLID_BREP ( 'Corps-Déplacer/Copier1[2]', #18 ) ;
#164 = FACE_OUTER_BOUND ( 'NONE', #64, .T. ) ;
#165 = DIRECTION ( 'NONE',  ( 0.0000000000000000000, 1.000000000000000000, 0.0000000000000000000 ) ) ;
#166 = EDGE_LOOP ( 'NONE', ( #170 ) ) ;
#167 = DIRECTION ( 'NONE',  ( 3.491481338843133355E-15, -1.227517819005651059E-16, 1.000000000000000000 ) ) ;
#168 = EDGE_LOOP ( 'NONE', ( #57 ) ) ;
#169 = DIRECTION ( 'NONE',  ( 0.0000000000000000000, 1.000000000000000000, 0.0000000000000000000 ) ) ;
#170 = ORIENTED_EDGE ( 'NONE', *, *, #106, .F. ) ;
#171 = VERTEX_POINT ( 'NONE', #158 ) ;
#172 = APPROVAL_PERSON_ORGANIZATION ( #32, #73, #34 ) ;
#173 = APPROVAL_ROLE ( '' ) ;
#174 = COORDINATED_UNIVERSAL_TIME_OFFSET ( 1, 0, .AHEAD. ) ;
#175 = CC_DESIGN_APPROVAL ( #147, ( #69 ) ) ;
#176 = VERTEX_POINT ( 'NONE', #135 ) ;
#177 = APPROVAL_ROLE ( '' ) ;
#178 = SECURITY_CLASSIFICATION ( '', '', #221 ) ;
#179 = EDGE_CURVE ( 'NONE', #176, #176, #118, .T. ) ;
#180 = FACE_OUTER_BOUND ( 'NONE', #130, .T. ) ;
#181 = ADVANCED_FACE ( 'NONE', ( #148 ), #9, .F. ) ;
#182 = CARTESIAN_POINT ( 'NONE',  ( 2.094888803305879698E-14, 0.0000000000000000000, 5.999999999999999112 ) ) ;
#183 = ORIENTED_EDGE ( 'NONE', *, *, #198, .F. ) ;
#184 = DIRECTION ( 'NONE',  ( -4.285855558155654155E-31, -1.000000000000000000, -1.227517819005651059E-16 ) ) ;
#185 = CIRCLE ( 'NONE', #199, 1.199999999999996847 ) ;
#186 = CARTESIAN_POINT ( 'NONE',  ( 2.094888803305879698E-14, -1.200000000000001066, 5.999999999999999112 ) ) ;
#187 = ORIENTED_EDGE ( 'NONE', *, *, #179, .T. ) ;
#188 = EDGE_CURVE ( 'NONE', #65, #65, #195, .T. ) ;
#189 = CALENDAR_DATE ( 2021, 16, 11 ) ;
#190 = FACE_OUTER_BOUND ( 'NONE', #23, .T. ) ;
#191 = DATE_TIME_ROLE ( 'creation_date' ) ;
#192 = VERTEX_POINT ( 'NONE', #63 ) ;
#193 = APPLICATION_PROTOCOL_DEFINITION ( 'international standard', 'config_control_design', 1994, #134 ) ;
#194 = AXIS2_PLACEMENT_3D ( 'NONE', #49, #120, #13 ) ;
#195 = CIRCLE ( 'NONE', #142, 1.200000000000000400 ) ;
#196 = CYLINDRICAL_SURFACE ( 'NONE', #223, 1.499999999999994893 ) ;
#197 = DATE_AND_TIME ( #105, #126 ) ;
#198 = EDGE_CURVE ( 'NONE', #171, #171, #185, .T. ) ;
#199 = AXIS2_PLACEMENT_3D ( 'NONE', #131, #3, #54 ) ;
#200 = DIRECTION ( 'NONE',  ( -4.285855558155653280E-31, -1.000000000000000000, -1.227517819005651059E-16 ) ) ;
#201 = CARTESIAN_POINT ( 'NONE',  ( 1.326762908760390423E-13, -4.653657836759941941E-15, 38.00000000000000000 ) ) ;
#202 = EDGE_LOOP ( 'NONE', ( #112 ) ) ;
#203 = DIRECTION ( 'NONE',  ( 3.491481338843133355E-15, -1.224646799147353207E-16, 1.000000000000000000 ) ) ;
#204 = CC_DESIGN_APPROVAL ( #73, ( #84 ) ) ;
#205 = FACE_OUTER_BOUND ( 'NONE', #26, .T. ) ;
#206 = APPLICATION_PROTOCOL_DEFINITION ( 'international standard', 'config_control_design', 1994, #92 ) ;
#207 = PLANE ( 'NONE',  #82 ) ;
#208 = PERSON_AND_ORGANIZATION_ROLE ( 'design_supplier' ) ;
#209 = DIRECTION ( 'NONE',  ( -3.491481338843133355E-15, 1.224646799147353207E-16, -1.000000000000000000 ) ) ;
#210 = MECHANICAL_CONTEXT ( 'NONE', #92, 'mechanical' ) ;
#211 = SHAPE_DEFINITION_REPRESENTATION ( #90, #40 ) ;
#212 = TOROIDAL_SURFACE ( 'NONE', #61, 9.199999999999999289, 8.000000000000000000 ) ;
#213 = PERSON_AND_ORGANIZATION_ROLE ( 'classification_officer' ) ;
#214 = CC_DESIGN_PERSON_AND_ORGANIZATION_ASSIGNMENT ( #220, #208, ( #69 ) ) ;
#215 = DATE_TIME_ROLE ( 'classification_date' ) ;
#216 = CARTESIAN_POINT ( 'NONE',  ( 2.852628742434047875E-14, -2.664024771102676555E-16, 8.170253441421049700 ) ) ;
#217 = FACE_OUTER_BOUND ( 'NONE', #98, .T. ) ;
#218 = LOCAL_TIME ( 16, 36, 16.00000000000000000, #28 ) ;
#219 = APPROVAL ( #35, 'UNSPECIFIED' ) ;
#220 = PERSON_AND_ORGANIZATION ( #33, #39 ) ;
#221 = SECURITY_CLASSIFICATION_LEVEL ( 'unclassified' ) ;
#222 = CC_DESIGN_PERSON_AND_ORGANIZATION_ASSIGNMENT ( #119, #213, ( #178 ) ) ;
#223 = AXIS2_PLACEMENT_3D ( 'NONE', #27, #129, #81 ) ;
ENDSEC;
END-ISO-10303-21;
