ISO-10303-21;
HEADER;
FILE_DESCRIPTION (( 'STEP AP203' ),
    '1' );
FILE_NAME ('966099.step',
    '2021-11-16T15:36:16',
    ( '' ),
    ( '' ),
    'SwSTEP 2.0',
    'SolidWorks 2019',
    '' );
FILE_SCHEMA (( 'CONFIG_CONTROL_DESIGN' ));
ENDSEC;

DATA;
#1 = AXIS2_PLACEMENT_3D ( 'NONE', #87, #152, #48 ) ;
#2 = CARTESIAN_POINT ( 'NONE',  ( 2.007601769834801364E-14, 1.124819836996386911E-32, 5.750000000000000000 ) ) ;
#3 = DIRECTION ( 'NONE',  ( 4.275831445896958607E-31, 1.000000000000000000, 1.224646799147353207E-16 ) ) ;
#4 = ADVANCED_FACE ( 'NONE', ( #193, #20 ), #125, .F. ) ;
#5 = CLOSED_SHELL ( 'NONE', ( #158, #213, #22 ) ) ;
#6 = CARTESIAN_POINT ( 'NONE',  ( 1.316288464743861212E-13, 1.499999999999992228, 37.69999999999999574 ) ) ;
#7 = CC_DESIGN_APPROVAL ( #8, ( #46 ) ) ;
#8 = APPROVAL ( #132, 'UNSPECIFIED' ) ;
#9 = EDGE_LOOP ( 'NONE', ( #67 ) ) ;
#10 = DATE_TIME_ROLE ( 'creation_date' ) ;
#11 = APPLICATION_PROTOCOL_DEFINITION ( 'international standard', 'config_control_design', 1994, #104 ) ;
#12 = CARTESIAN_POINT ( 'NONE',  ( 0.0000000000000000000, 0.0000000000000000000, 0.0000000000000000000 ) ) ;
#13 = EDGE_LOOP ( 'NONE', ( #160 ) ) ;
#14 = CARTESIAN_POINT ( 'NONE',  ( 1.326762908760390423E-13, 8.998558695971053960E-33, 38.00000000000000000 ) ) ;
#15 = CALENDAR_DATE ( 2021, 16, 11 ) ;
#16 = CC_DESIGN_APPROVAL ( #42, ( #28 ) ) ;
#17 = DIRECTION ( 'NONE',  ( 0.0000000000000000000, 1.000000000000000000, 0.0000000000000000000 ) ) ;
#18 = FACE_OUTER_BOUND ( 'NONE', #80, .T. ) ;
#19 = DIRECTION ( 'NONE',  ( 3.491481338843133355E-15, -1.224646799147353207E-16, 1.000000000000000000 ) ) ;
#20 = FACE_OUTER_BOUND ( 'NONE', #126, .T. ) ;
#21 = CC_DESIGN_SECURITY_CLASSIFICATION ( #46, ( #28 ) ) ;
#22 = ADVANCED_FACE ( 'NONE', ( #115 ), #184, .F. ) ;
#23 = LOCAL_TIME ( 16, 36, 16.00000000000000000, #100 ) ;
#24 = EDGE_LOOP ( 'NONE', ( #62 ) ) ;
#25 = PERSON_AND_ORGANIZATION ( #94, #92 ) ;
#26 = APPROVAL ( #63, 'UNSPECIFIED' ) ;
#27 = COORDINATED_UNIVERSAL_TIME_OFFSET ( 1, 0, .AHEAD. ) ;
#28 = PRODUCT_DEFINITION_FORMATION_WITH_SPECIFIED_SOURCE ( 'ANY', '', #216, .NOT_KNOWN. ) ;
#29 = PERSON_AND_ORGANIZATION_ROLE ( 'creator' ) ;
#30 = ORIENTED_EDGE ( 'NONE', *, *, #105, .F. ) ;
#31 = SECURITY_CLASSIFICATION_LEVEL ( 'unclassified' ) ;
#32 = DIRECTION ( 'NONE',  ( 1.000000000000000000, 0.0000000000000000000, 0.0000000000000000000 ) ) ;
#33 = AXIS2_PLACEMENT_3D ( 'NONE', #2, #204, #51 ) ;
#34 = LOCAL_TIME ( 16, 36, 16.00000000000000000, #68 ) ;
#35 = AXIS2_PLACEMENT_3D ( 'NONE', #36, #167, #136 ) ;
#36 = CARTESIAN_POINT ( 'NONE',  ( 2.007601769834801364E-14, 0.0000000000000000000, 5.749999999999999112 ) ) ;
#37 = CYLINDRICAL_SURFACE ( 'NONE', #111, 1.149999999999999911 ) ;
#38 = DIRECTION ( 'NONE',  ( -3.491481338843133355E-15, 1.224646799147353207E-16, -1.000000000000000000 ) ) ;
#39 = AXIS2_PLACEMENT_3D ( 'NONE', #222, #73, #202 ) ;
#40 = LOCAL_TIME ( 16, 36, 16.00000000000000000, #127 ) ;
#41 = VERTEX_POINT ( 'NONE', #190 ) ;
#42 = APPROVAL ( #79, 'UNSPECIFIED' ) ;
#43 = APPROVAL_DATE_TIME ( #198, #8 ) ;
#44 = CC_DESIGN_DATE_AND_TIME_ASSIGNMENT ( #101, #81, ( #46 ) ) ;
#45 = ORIENTED_EDGE ( 'NONE', *, *, #64, .T. ) ;
#46 = SECURITY_CLASSIFICATION ( '', '', #31 ) ;
#47 = PERSON_AND_ORGANIZATION_ROLE ( 'design_owner' ) ;
#48 = DIRECTION ( 'NONE',  ( -4.285855558155654155E-31, -1.000000000000000000, -1.227517819005651059E-16 ) ) ;
#49 = DIRECTION ( 'NONE',  ( -3.491481338843133355E-15, 1.224646799147353207E-16, -1.000000000000000000 ) ) ;
#50 = AXIS2_PLACEMENT_3D ( 'NONE', #153, #146, #103 ) ;
#51 = DIRECTION ( 'NONE',  ( -4.275831445896958607E-31, -1.000000000000000000, -1.224646799147353207E-16 ) ) ;
#52 = DIRECTION ( 'NONE',  ( 3.491481338843133355E-15, -1.227517819005651059E-16, 1.000000000000000000 ) ) ;
#53 = VERTEX_POINT ( 'NONE', #169 ) ;
#54 = PLANE ( 'NONE',  #33 ) ;
#55 = CARTESIAN_POINT ( 'NONE',  ( 2.007601769834801364E-14, -1.150000000000001243, 5.749999999999999112 ) ) ;
#56 = PRODUCT_RELATED_PRODUCT_CATEGORY ( 'detail', '', ( #216 ) ) ;
#57 = UNCERTAINTY_MEASURE_WITH_UNIT (LENGTH_MEASURE( 1.000000000000000082E-05 ), #138, 'distance_accuracy_value', 'NONE');
#58 = AXIS2_PLACEMENT_3D ( 'NONE', #179, #19, #151 ) ;
#59 =( NAMED_UNIT ( * ) PLANE_ANGLE_UNIT ( ) SI_UNIT ( $, .RADIAN. ) );
#60 = CIRCLE ( 'NONE', #212, 1.199999999999996847 ) ;
#61 = AXIS2_PLACEMENT_3D ( 'NONE', #119, #188, #82 ) ;
#62 = ORIENTED_EDGE ( 'NONE', *, *, #121, .F. ) ;
#63 = APPROVAL_STATUS ( 'not_yet_approved' ) ;
#64 = EDGE_CURVE ( 'NONE', #187, #187, #112, .T. ) ;
#65 = DIRECTION ( 'NONE',  ( 0.0000000000000000000, 0.0000000000000000000, 1.000000000000000000 ) ) ;
#66 = AXIS2_PLACEMENT_3D ( 'NONE', #114, #206, #17 ) ;
#67 = ORIENTED_EDGE ( 'NONE', *, *, #121, .T. ) ;
#68 = COORDINATED_UNIVERSAL_TIME_OFFSET ( 1, 0, .AHEAD. ) ;
#69 = FACE_OUTER_BOUND ( 'NONE', #96, .T. ) ;
#70 = PERSON_AND_ORGANIZATION_ROLE ( 'creator' ) ;
#71 = PRODUCT_DEFINITION ( 'UNKNOWN', '', #28, #156 ) ;
#72 = DIRECTION ( 'NONE',  ( -3.491481338843133355E-15, 1.224646799147353207E-16, -1.000000000000000000 ) ) ;
#73 = DIRECTION ( 'NONE',  ( 3.491481338843133355E-15, -1.227517819005651059E-16, 1.000000000000000000 ) ) ;
#74 = DIRECTION ( 'NONE',  ( 0.0000000000000000000, -1.000000000000000000, 0.0000000000000000000 ) ) ;
#75 = FACE_OUTER_BOUND ( 'NONE', #9, .T. ) ;
#76 = EDGE_LOOP ( 'NONE', ( #175 ) ) ;
#77 = ORIENTED_EDGE ( 'NONE', *, *, #186, .T. ) ;
#78 = COORDINATED_UNIVERSAL_TIME_OFFSET ( 1, 0, .AHEAD. ) ;
#79 = APPROVAL_STATUS ( 'not_yet_approved' ) ;
#80 = EDGE_LOOP ( 'NONE', ( #30 ) ) ;
#81 = DATE_TIME_ROLE ( 'classification_date' ) ;
#82 = DIRECTION ( 'NONE',  ( -4.275831445896958607E-31, -1.000000000000000000, -1.224646799147353207E-16 ) ) ;
#83 = APPROVAL_DATE_TIME ( #197, #42 ) ;
#84 = ADVANCED_FACE ( 'NONE', ( #69 ), #221, .F. ) ;
#85 = CARTESIAN_POINT ( 'NONE',  ( 1.326762908760390423E-13, -4.653657836759941941E-15, 38.00000000000000000 ) ) ;
#86 = CC_DESIGN_PERSON_AND_ORGANIZATION_ASSIGNMENT ( #164, #195, ( #28 ) ) ;
#87 = CARTESIAN_POINT ( 'NONE',  ( -4.928733891879000045E-31, -5.220882699138836257E-33, -1.411645491856498200E-16 ) ) ;
#88 = AXIS2_PLACEMENT_3D ( 'NONE', #12, #65, #32 ) ;
#89 = CIRCLE ( 'NONE', #1, 1.149999999999999467 ) ;
#90 = CARTESIAN_POINT ( 'NONE',  ( 2.007601769834801364E-14, -7.058227459282492724E-16, 5.749999999999999112 ) ) ;
#91 = VERTEX_POINT ( 'NONE', #6 ) ;
#92 = ORGANIZATION ( 'UNSPECIFIED', 'UNSPECIFIED', '' ) ;
#93 = ORIENTED_EDGE ( 'NONE', *, *, #64, .F. ) ;
#94 = PERSON ( 'UNSPECIFIED', 'UNSPECIFIED', 'UNSPECIFIED', ('UNSPECIFIED'), ('UNSPECIFIED'), ('UNSPECIFIED') ) ;
#95 = DATE_AND_TIME ( #97, #40 ) ;
#96 = EDGE_LOOP ( 'NONE', ( #93 ) ) ;
#97 = CALENDAR_DATE ( 2021, 16, 11 ) ;
#98 = CC_DESIGN_PERSON_AND_ORGANIZATION_ASSIGNMENT ( #140, #29, ( #28 ) ) ;
#99 = EDGE_LOOP ( 'NONE', ( #45 ) ) ;
#100 = COORDINATED_UNIVERSAL_TIME_OFFSET ( 1, 0, .AHEAD. ) ;
#101 = DATE_AND_TIME ( #147, #23 ) ;
#102 = CARTESIAN_POINT ( 'NONE',  ( 1.316288464743861212E-13, -4.616918432785521081E-15, 37.69999999999999574 ) ) ;
#103 = DIRECTION ( 'NONE',  ( 0.0000000000000000000, 1.000000000000000000, 0.0000000000000000000 ) ) ;
#104 = APPLICATION_CONTEXT ( 'configuration controlled 3d designs of mechanical parts and assemblies' ) ;
#105 = EDGE_CURVE ( 'NONE', #159, #159, #183, .T. ) ;
#106 = CARTESIAN_POINT ( 'NONE',  ( -6.413731847436034514E-31, 0.0000000000000000000, -1.836965810494968570E-16 ) ) ;
#107 = FACE_OUTER_BOUND ( 'NONE', #24, .T. ) ;
#108 = LOCAL_TIME ( 16, 36, 16.00000000000000000, #78 ) ;
#109 = PLANE ( 'NONE',  #122 ) ;
#110 = SHAPE_DEFINITION_REPRESENTATION ( #199, #181 ) ;
#111 = AXIS2_PLACEMENT_3D ( 'NONE', #106, #52, #118 ) ;
#112 = CIRCLE ( 'NONE', #155, 1.150000000000000577 ) ;
#113 = CARTESIAN_POINT ( 'NONE',  ( 2.824750139003796288E-14, 1.499999999999994671, 8.090405947693675159 ) ) ;
#114 = CARTESIAN_POINT ( 'NONE',  ( 1.326762908760390423E-13, -4.653657836759941941E-15, 38.00000000000000000 ) ) ;
#115 = FACE_OUTER_BOUND ( 'NONE', #143, .T. ) ;
#116 = DIRECTION ( 'NONE',  ( 0.0000000000000000000, 1.000000000000000000, 0.0000000000000000000 ) ) ;
#117 = CC_DESIGN_PERSON_AND_ORGANIZATION_ASSIGNMENT ( #194, #215, ( #46 ) ) ;
#118 = DIRECTION ( 'NONE',  ( -4.285855558155653280E-31, -1.000000000000000000, -1.227517819005651305E-16 ) ) ;
#119 = CARTESIAN_POINT ( 'NONE',  ( 2.007601769834801364E-14, 1.124819836996386911E-32, 5.750000000000000000 ) ) ;
#120 = APPROVAL_PERSON_ORGANIZATION ( #220, #42, #161 ) ;
#121 = EDGE_CURVE ( 'NONE', #91, #91, #171, .T. ) ;
#122 = AXIS2_PLACEMENT_3D ( 'NONE', #14, #219, #3 ) ;
#123 = CC_DESIGN_APPROVAL ( #26, ( #71 ) ) ;
#124 = CLOSED_SHELL ( 'NONE', ( #172, #200, #148, #4, #84 ) ) ;
#125 = TOROIDAL_SURFACE ( 'NONE', #35, 9.149999999999998579, 8.000000000000000000 ) ;
#126 = EDGE_LOOP ( 'NONE', ( #196 ) ) ;
#127 = COORDINATED_UNIVERSAL_TIME_OFFSET ( 1, 0, .AHEAD. ) ;
#128 = CALENDAR_DATE ( 2021, 16, 11 ) ;
#129 = PERSON_AND_ORGANIZATION ( #94, #92 ) ;
#130 = CALENDAR_DATE ( 2021, 16, 11 ) ;
#131 = DIRECTION ( 'NONE',  ( 4.275831445896958607E-31, 1.000000000000000000, 1.224646799147353207E-16 ) ) ;
#132 = APPROVAL_STATUS ( 'not_yet_approved' ) ;
#133 = CONICAL_SURFACE ( 'NONE', #66, 1.199999999999996847, 0.7853981633974453924 ) ;
#134 = FACE_OUTER_BOUND ( 'NONE', #211, .T. ) ;
#135 = CARTESIAN_POINT ( 'NONE',  ( 0.0000000000000000000, 0.0000000000000000000, 0.0000000000000000000 ) ) ;
#136 = DIRECTION ( 'NONE',  ( -4.347792104868795754E-31, -1.000000000000000000, -1.227517819005651059E-16 ) ) ;
#137 = EDGE_CURVE ( 'NONE', #53, #53, #89, .T. ) ;
#138 =( LENGTH_UNIT ( ) NAMED_UNIT ( * ) SI_UNIT ( .MILLI., .METRE. ) );
#139 = EDGE_LOOP ( 'NONE', ( #77 ) ) ;
#140 = PERSON_AND_ORGANIZATION ( #94, #92 ) ;
#141 = APPROVAL_PERSON_ORGANIZATION ( #144, #8, #218 ) ;
#142 = PERSON_AND_ORGANIZATION ( #94, #92 ) ;
#143 = EDGE_LOOP ( 'NONE', ( #176 ) ) ;
#144 = PERSON_AND_ORGANIZATION ( #94, #92 ) ;
#145 = APPROVAL_PERSON_ORGANIZATION ( #25, #26, #174 ) ;
#146 = DIRECTION ( 'NONE',  ( -3.491481338843133355E-15, 1.227517819005651059E-16, -1.000000000000000000 ) ) ;
#147 = CALENDAR_DATE ( 2021, 16, 11 ) ;
#148 = ADVANCED_FACE ( 'NONE', ( #166 ), #109, .F. ) ;
#149 = FACE_OUTER_BOUND ( 'NONE', #76, .T. ) ;
#150 = MANIFOLD_SOLID_BREP ( 'Corps-Déplacer/Copier1[2]', #5 ) ;
#151 = DIRECTION ( 'NONE',  ( -4.275831445896958607E-31, -1.000000000000000000, -1.224646799147353207E-16 ) ) ;
#152 = DIRECTION ( 'NONE',  ( 3.491481338843133355E-15, -1.227517819005651059E-16, 1.000000000000000000 ) ) ;
#153 = CARTESIAN_POINT ( 'NONE',  ( 2.824750139003796288E-14, -2.872890004500795731E-16, 8.090405947693675159 ) ) ;
#154 = APPLICATION_CONTEXT ( 'configuration controlled 3d designs of mechanical parts and assemblies' ) ;
#155 = AXIS2_PLACEMENT_3D ( 'NONE', #90, #168, #74 ) ;
#156 = DESIGN_CONTEXT ( 'detailed design', #104, 'design' ) ;
#157 = EDGE_CURVE ( 'NONE', #207, #207, #210, .T. ) ;
#158 = ADVANCED_FACE ( 'NONE', ( #134 ), #54, .T. ) ;
#159 = VERTEX_POINT ( 'NONE', #113 ) ;
#160 = ORIENTED_EDGE ( 'NONE', *, *, #186, .F. ) ;
#161 = APPROVAL_ROLE ( '' ) ;
#162 = MECHANICAL_CONTEXT ( 'NONE', #154, 'mechanical' ) ;
#163 = APPLICATION_PROTOCOL_DEFINITION ( 'international standard', 'config_control_design', 1994, #154 ) ;
#164 = PERSON_AND_ORGANIZATION ( #94, #92 ) ;
#165 = CYLINDRICAL_SURFACE ( 'NONE', #203, 1.499999999999994893 ) ;
#166 = FACE_OUTER_BOUND ( 'NONE', #13, .T. ) ;
#167 = DIRECTION ( 'NONE',  ( 3.491481338843133355E-15, -1.227517819005651059E-16, 1.000000000000000000 ) ) ;
#168 = DIRECTION ( 'NONE',  ( 3.491481338843133355E-15, -1.227517819005651059E-16, 1.000000000000000000 ) ) ;
#169 = CARTESIAN_POINT ( 'NONE',  ( -9.857467783758000091E-31, -1.149999999999999467, -2.823290983712996399E-16 ) ) ;
#170 = CARTESIAN_POINT ( 'NONE',  ( 2.007601769834801364E-14, -1.150000000000001243, 5.749999999999999112 ) ) ;
#171 = CIRCLE ( 'NONE', #191, 1.499999999999996669 ) ;
#172 = ADVANCED_FACE ( 'NONE', ( #75, #18 ), #165, .T. ) ;
#173 = EDGE_LOOP ( 'NONE', ( #217 ) ) ;
#174 = APPROVAL_ROLE ( '' ) ;
#175 = ORIENTED_EDGE ( 'NONE', *, *, #157, .F. ) ;
#176 = ORIENTED_EDGE ( 'NONE', *, *, #137, .F. ) ;
#177 = DATE_AND_TIME ( #128, #209 ) ;
#178 = APPROVAL_DATE_TIME ( #177, #26 ) ;
#179 = CARTESIAN_POINT ( 'NONE',  ( -4.275811853558651348E-31, 1.499752910594655314E-32, -1.224641187678636516E-16 ) ) ;
#180 = CC_DESIGN_PERSON_AND_ORGANIZATION_ASSIGNMENT ( #142, #47, ( #216 ) ) ;
#181 = ADVANCED_BREP_SHAPE_REPRESENTATION ( '966099', ( #223, #150, #88 ), #182 ) ;
#182 =( GEOMETRIC_REPRESENTATION_CONTEXT ( 3 ) GLOBAL_UNCERTAINTY_ASSIGNED_CONTEXT ( ( #57 ) ) GLOBAL_UNIT_ASSIGNED_CONTEXT ( ( #138, #59, #192 ) ) REPRESENTATION_CONTEXT ( 'NONE', 'WORKASPACE' ) );
#183 = CIRCLE ( 'NONE', #50, 1.499999999999994893 ) ;
#184 = PLANE ( 'NONE',  #58 ) ;
#185 = FACE_OUTER_BOUND ( 'NONE', #173, .T. ) ;
#186 = EDGE_CURVE ( 'NONE', #41, #41, #60, .T. ) ;
#187 = VERTEX_POINT ( 'NONE', #170 ) ;
#188 = DIRECTION ( 'NONE',  ( 3.491481338843133355E-15, -1.224646799147353207E-16, 1.000000000000000000 ) ) ;
#189 = CC_DESIGN_DATE_AND_TIME_ASSIGNMENT ( #95, #10, ( #71 ) ) ;
#190 = CARTESIAN_POINT ( 'NONE',  ( 1.326762908760390423E-13, 1.199999999999992406, 38.00000000000000000 ) ) ;
#191 = AXIS2_PLACEMENT_3D ( 'NONE', #102, #72, #201 ) ;
#192 =( NAMED_UNIT ( * ) SI_UNIT ( $, .STERADIAN. ) SOLID_ANGLE_UNIT ( ) );
#193 = FACE_OUTER_BOUND ( 'NONE', #99, .T. ) ;
#194 = PERSON_AND_ORGANIZATION ( #94, #92 ) ;
#195 = PERSON_AND_ORGANIZATION_ROLE ( 'design_supplier' ) ;
#196 = ORIENTED_EDGE ( 'NONE', *, *, #105, .T. ) ;
#197 = DATE_AND_TIME ( #15, #108 ) ;
#198 = DATE_AND_TIME ( #130, #34 ) ;
#199 = PRODUCT_DEFINITION_SHAPE ( 'NONE', 'NONE',  #71 ) ;
#200 = ADVANCED_FACE ( 'NONE', ( #107, #205 ), #133, .T. ) ;
#201 = DIRECTION ( 'NONE',  ( 0.0000000000000000000, 1.000000000000000000, 0.0000000000000000000 ) ) ;
#202 = DIRECTION ( 'NONE',  ( 0.0000000000000000000, -1.000000000000000000, 0.0000000000000000000 ) ) ;
#203 = AXIS2_PLACEMENT_3D ( 'NONE', #135, #38, #131 ) ;
#204 = DIRECTION ( 'NONE',  ( 3.491481338843133355E-15, -1.224646799147353207E-16, 1.000000000000000000 ) ) ;
#205 = FACE_BOUND ( 'NONE', #139, .T. ) ;
#206 = DIRECTION ( 'NONE',  ( -3.491481338843133355E-15, 1.224646799147353207E-16, -1.000000000000000000 ) ) ;
#207 = VERTEX_POINT ( 'NONE', #55 ) ;
#208 = CC_DESIGN_PERSON_AND_ORGANIZATION_ASSIGNMENT ( #129, #70, ( #71 ) ) ;
#209 = LOCAL_TIME ( 16, 36, 16.00000000000000000, #27 ) ;
#210 = CIRCLE ( 'NONE', #39, 1.150000000000000577 ) ;
#211 = EDGE_LOOP ( 'NONE', ( #214 ) ) ;
#212 = AXIS2_PLACEMENT_3D ( 'NONE', #85, #49, #116 ) ;
#213 = ADVANCED_FACE ( 'NONE', ( #185, #149 ), #37, .T. ) ;
#214 = ORIENTED_EDGE ( 'NONE', *, *, #157, .T. ) ;
#215 = PERSON_AND_ORGANIZATION_ROLE ( 'classification_officer' ) ;
#216 = PRODUCT ( '966099', '966099', '', ( #162 ) ) ;
#217 = ORIENTED_EDGE ( 'NONE', *, *, #137, .T. ) ;
#218 = APPROVAL_ROLE ( '' ) ;
#219 = DIRECTION ( 'NONE',  ( -3.491481338843133355E-15, 1.224646799147353207E-16, -1.000000000000000000 ) ) ;
#220 = PERSON_AND_ORGANIZATION ( #94, #92 ) ;
#221 = PLANE ( 'NONE',  #61 ) ;
#222 = CARTESIAN_POINT ( 'NONE',  ( 2.007601769834801364E-14, -7.058227459282492724E-16, 5.749999999999999112 ) ) ;
#223 = MANIFOLD_SOLID_BREP ( 'Corps-Déplacer/Copier1[1]', #124 ) ;
ENDSEC;
END-ISO-10303-21;
