ISO-10303-21;
HEADER;
FILE_DESCRIPTION (( 'STEP AP203' ),
    '1' );
FILE_NAME ('966098.step',
    '2021-11-16T15:36:15',
    ( '' ),
    ( '' ),
    'SwSTEP 2.0',
    'SolidWorks 2019',
    '' );
FILE_SCHEMA (( 'CONFIG_CONTROL_DESIGN' ));
ENDSEC;

DATA;
#1 = ORIENTED_EDGE ( 'NONE', *, *, #164, .F. ) ;
#2 = COORDINATED_UNIVERSAL_TIME_OFFSET ( 1, 0, .AHEAD. ) ;
#3 = FACE_OUTER_BOUND ( 'NONE', #171, .T. ) ;
#4 = DIRECTION ( 'NONE',  ( 3.491481338843133355E-15, -1.224646799147353207E-16, 1.000000000000000000 ) ) ;
#5 = EDGE_LOOP ( 'NONE', ( #42 ) ) ;
#6 =( GEOMETRIC_REPRESENTATION_CONTEXT ( 3 ) GLOBAL_UNCERTAINTY_ASSIGNED_CONTEXT ( ( #221 ) ) GLOBAL_UNIT_ASSIGNED_CONTEXT ( ( #200, #26, #103 ) ) REPRESENTATION_CONTEXT ( 'NONE', 'WORKASPACE' ) );
#7 = FACE_OUTER_BOUND ( 'NONE', #151, .T. ) ;
#8 = CARTESIAN_POINT ( 'NONE',  ( 1.326762908760390423E-13, -4.653657836759941941E-15, 38.00000000000000000 ) ) ;
#9 = DIRECTION ( 'NONE',  ( 0.0000000000000000000, 1.000000000000000000, 0.0000000000000000000 ) ) ;
#10 = DIRECTION ( 'NONE',  ( 1.000000000000000000, 0.0000000000000000000, 0.0000000000000000000 ) ) ;
#11 = PERSON_AND_ORGANIZATION ( #31, #33 ) ;
#12 = CLOSED_SHELL ( 'NONE', ( #50, #177, #20 ) ) ;
#13 = DATE_TIME_ROLE ( 'classification_date' ) ;
#14 = CIRCLE ( 'NONE', #194, 1.499999999999996669 ) ;
#15 = COORDINATED_UNIVERSAL_TIME_OFFSET ( 1, 0, .AHEAD. ) ;
#16 = ORIENTED_EDGE ( 'NONE', *, *, #149, .F. ) ;
#17 = PLANE ( 'NONE',  #161 ) ;
#18 = CC_DESIGN_DATE_AND_TIME_ASSIGNMENT ( #65, #206, ( #195 ) ) ;
#19 = DIRECTION ( 'NONE',  ( -4.347973205882576304E-31, -1.000000000000000000, -1.227517819005651059E-16 ) ) ;
#20 = ADVANCED_FACE ( 'NONE', ( #82 ), #41, .F. ) ;
#21 = DIRECTION ( 'NONE',  ( 3.491481338843133355E-15, -1.227517819005651059E-16, 1.000000000000000000 ) ) ;
#22 = ADVANCED_FACE ( 'NONE', ( #7 ), #192, .F. ) ;
#23 = EDGE_LOOP ( 'NONE', ( #170 ) ) ;
#24 = LOCAL_TIME ( 16, 36, 15.00000000000000000, #186 ) ;
#25 = CARTESIAN_POINT ( 'NONE',  ( 1.316288464743861212E-13, -4.616918432785521081E-15, 37.69999999999999574 ) ) ;
#26 =( NAMED_UNIT ( * ) PLANE_ANGLE_UNIT ( ) SI_UNIT ( $, .RADIAN. ) );
#27 = APPLICATION_PROTOCOL_DEFINITION ( 'international standard', 'config_control_design', 1994, #61 ) ;
#28 = VERTEX_POINT ( 'NONE', #122 ) ;
#29 = COORDINATED_UNIVERSAL_TIME_OFFSET ( 1, 0, .AHEAD. ) ;
#30 = CIRCLE ( 'NONE', #80, 1.100000000000000977 ) ;
#31 = PERSON ( 'UNSPECIFIED', 'UNSPECIFIED', 'UNSPECIFIED', ('UNSPECIFIED'), ('UNSPECIFIED'), ('UNSPECIFIED') ) ;
#32 = PERSON_AND_ORGANIZATION_ROLE ( 'classification_officer' ) ;
#33 = ORGANIZATION ( 'UNSPECIFIED', 'UNSPECIFIED', '' ) ;
#34 = PERSON_AND_ORGANIZATION ( #31, #33 ) ;
#35 = ORIENTED_EDGE ( 'NONE', *, *, #149, .T. ) ;
#36 = CALENDAR_DATE ( 2021, 16, 11 ) ;
#37 = DIRECTION ( 'NONE',  ( -4.275831445896958607E-31, -1.000000000000000000, -1.224646799147353207E-16 ) ) ;
#38 = CALENDAR_DATE ( 2021, 16, 11 ) ;
#39 = CARTESIAN_POINT ( 'NONE',  ( -4.714441113971216330E-31, -5.974282697127036076E-33, -1.350269600906215326E-16 ) ) ;
#40 = CARTESIAN_POINT ( 'NONE',  ( 1.920314736363723030E-14, -6.751348004531079097E-16, 5.499999999999999112 ) ) ;
#41 = PLANE ( 'NONE',  #135 ) ;
#42 = ORIENTED_EDGE ( 'NONE', *, *, #187, .F. ) ;
#43 = FACE_OUTER_BOUND ( 'NONE', #188, .T. ) ;
#44 = CC_DESIGN_PERSON_AND_ORGANIZATION_ASSIGNMENT ( #204, #48, ( #109 ) ) ;
#45 = DIRECTION ( 'NONE',  ( 0.0000000000000000000, 1.000000000000000000, 0.0000000000000000000 ) ) ;
#46 = ADVANCED_BREP_SHAPE_REPRESENTATION ( '966098', ( #180, #178, #93 ), #6 ) ;
#47 = AXIS2_PLACEMENT_3D ( 'NONE', #69, #133, #167 ) ;
#48 = PERSON_AND_ORGANIZATION_ROLE ( 'creator' ) ;
#49 = APPROVAL_PERSON_ORGANIZATION ( #138, #111, #156 ) ;
#50 = ADVANCED_FACE ( 'NONE', ( #154 ), #17, .T. ) ;
#51 = ORIENTED_EDGE ( 'NONE', *, *, #118, .T. ) ;
#52 = FACE_OUTER_BOUND ( 'NONE', #53, .T. ) ;
#53 = EDGE_LOOP ( 'NONE', ( #35 ) ) ;
#54 = ADVANCED_FACE ( 'NONE', ( #3, #55 ), #96, .T. ) ;
#55 = FACE_OUTER_BOUND ( 'NONE', #110, .T. ) ;
#56 = DIRECTION ( 'NONE',  ( 3.491481338843133355E-15, -1.224646799147353207E-16, 1.000000000000000000 ) ) ;
#57 = AXIS2_PLACEMENT_3D ( 'NONE', #99, #168, #19 ) ;
#58 = FACE_OUTER_BOUND ( 'NONE', #207, .T. ) ;
#59 = COORDINATED_UNIVERSAL_TIME_OFFSET ( 1, 0, .AHEAD. ) ;
#60 = CARTESIAN_POINT ( 'NONE',  ( 1.326762908760390423E-13, 1.199999999999992406, 38.00000000000000000 ) ) ;
#61 = APPLICATION_CONTEXT ( 'configuration controlled 3d designs of mechanical parts and assemblies' ) ;
#62 = EDGE_CURVE ( 'NONE', #28, #28, #30, .T. ) ;
#63 = CC_DESIGN_PERSON_AND_ORGANIZATION_ASSIGNMENT ( #11, #75, ( #90 ) ) ;
#64 = CARTESIAN_POINT ( 'NONE',  ( 1.326762908760390423E-13, -4.653657836759941941E-15, 38.00000000000000000 ) ) ;
#65 = DATE_AND_TIME ( #38, #98 ) ;
#66 = AXIS2_PLACEMENT_3D ( 'NONE', #40, #21, #153 ) ;
#67 = CARTESIAN_POINT ( 'NONE',  ( -4.275811853558651348E-31, 1.499752910594655314E-32, -1.224641187678636516E-16 ) ) ;
#68 = CARTESIAN_POINT ( 'NONE',  ( 1.920314736363723030E-14, -6.751348004531079097E-16, 5.499999999999999112 ) ) ;
#69 = CARTESIAN_POINT ( 'NONE',  ( 0.0000000000000000000, 0.0000000000000000000, 0.0000000000000000000 ) ) ;
#70 = DIRECTION ( 'NONE',  ( 0.0000000000000000000, -1.000000000000000000, 0.0000000000000000000 ) ) ;
#71 = CARTESIAN_POINT ( 'NONE',  ( 1.920314736363723345E-14, 1.124819836996386911E-32, 5.500000000000000000 ) ) ;
#72 = DIRECTION ( 'NONE',  ( 0.0000000000000000000, 1.000000000000000000, 0.0000000000000000000 ) ) ;
#73 = VERTEX_POINT ( 'NONE', #219 ) ;
#74 = VERTEX_POINT ( 'NONE', #60 ) ;
#75 = PERSON_AND_ORGANIZATION_ROLE ( 'design_owner' ) ;
#76 = APPLICATION_PROTOCOL_DEFINITION ( 'international standard', 'config_control_design', 1994, #173 ) ;
#77 = CIRCLE ( 'NONE', #175, 1.199999999999996847 ) ;
#78 = DATE_AND_TIME ( #144, #84 ) ;
#79 = APPROVAL ( #150, 'UNSPECIFIED' ) ;
#80 = AXIS2_PLACEMENT_3D ( 'NONE', #68, #131, #70 ) ;
#81 = DATE_AND_TIME ( #36, #102 ) ;
#82 = FACE_OUTER_BOUND ( 'NONE', #23, .T. ) ;
#83 = CIRCLE ( 'NONE', #66, 1.100000000000000977 ) ;
#84 = LOCAL_TIME ( 16, 36, 15.00000000000000000, #29 ) ;
#85 = FACE_OUTER_BOUND ( 'NONE', #5, .T. ) ;
#86 = PERSON_AND_ORGANIZATION_ROLE ( 'design_supplier' ) ;
#87 = ORIENTED_EDGE ( 'NONE', *, *, #62, .T. ) ;
#88 = EDGE_LOOP ( 'NONE', ( #143 ) ) ;
#89 = CARTESIAN_POINT ( 'NONE',  ( 1.920314736363723345E-14, 1.124819836996386911E-32, 5.500000000000000000 ) ) ;
#90 = PRODUCT ( '966098', '966098', '', ( #172 ) ) ;
#91 = CIRCLE ( 'NONE', #158, 1.499999999999994893 ) ;
#92 = VERTEX_POINT ( 'NONE', #198 ) ;
#93 = AXIS2_PLACEMENT_3D ( 'NONE', #123, #179, #10 ) ;
#94 = ADVANCED_FACE ( 'NONE', ( #85 ), #211, .F. ) ;
#95 = APPROVAL_ROLE ( '' ) ;
#96 = CYLINDRICAL_SURFACE ( 'NONE', #47, 1.499999999999994893 ) ;
#97 = CIRCLE ( 'NONE', #182, 1.099999999999999423 ) ;
#98 = LOCAL_TIME ( 16, 36, 15.00000000000000000, #2 ) ;
#99 = CARTESIAN_POINT ( 'NONE',  ( 1.920314736363723030E-14, 0.0000000000000000000, 5.499999999999999112 ) ) ;
#100 = EDGE_LOOP ( 'NONE', ( #214 ) ) ;
#101 = CLOSED_SHELL ( 'NONE', ( #54, #160, #94, #116, #22 ) ) ;
#102 = LOCAL_TIME ( 16, 36, 15.00000000000000000, #15 ) ;
#103 =( NAMED_UNIT ( * ) SI_UNIT ( $, .STERADIAN. ) SOLID_ANGLE_UNIT ( ) );
#104 = CARTESIAN_POINT ( 'NONE',  ( 1.316288464743861212E-13, 1.499999999999992228, 37.69999999999999574 ) ) ;
#105 = DIRECTION ( 'NONE',  ( -3.491481338843133355E-15, 1.224646799147353207E-16, -1.000000000000000000 ) ) ;
#106 = APPROVAL_DATE_TIME ( #81, #157 ) ;
#107 = CC_DESIGN_PERSON_AND_ORGANIZATION_ASSIGNMENT ( #34, #32, ( #205 ) ) ;
#108 = PERSON_AND_ORGANIZATION_ROLE ( 'creator' ) ;
#109 = PRODUCT_DEFINITION_FORMATION_WITH_SPECIFIED_SOURCE ( 'ANY', '', #90, .NOT_KNOWN. ) ;
#110 = EDGE_LOOP ( 'NONE', ( #1 ) ) ;
#111 = APPROVAL ( #155, 'UNSPECIFIED' ) ;
#112 = ORIENTED_EDGE ( 'NONE', *, *, #169, .F. ) ;
#113 = FACE_OUTER_BOUND ( 'NONE', #88, .T. ) ;
#114 = PRODUCT_RELATED_PRODUCT_CATEGORY ( 'detail', '', ( #90 ) ) ;
#115 = DIRECTION ( 'NONE',  ( 3.491481338843133355E-15, -1.227517819005651059E-16, 1.000000000000000000 ) ) ;
#116 = ADVANCED_FACE ( 'NONE', ( #52, #113 ), #210, .F. ) ;
#117 = FACE_BOUND ( 'NONE', #100, .T. ) ;
#118 = EDGE_CURVE ( 'NONE', #92, #92, #97, .T. ) ;
#119 = ORIENTED_EDGE ( 'NONE', *, *, #169, .T. ) ;
#120 = DIRECTION ( 'NONE',  ( 0.0000000000000000000, 1.000000000000000000, 0.0000000000000000000 ) ) ;
#121 = CALENDAR_DATE ( 2021, 16, 11 ) ;
#122 = CARTESIAN_POINT ( 'NONE',  ( 1.920314736363723030E-14, -1.100000000000001643, 5.499999999999999112 ) ) ;
#123 = CARTESIAN_POINT ( 'NONE',  ( 0.0000000000000000000, 0.0000000000000000000, 0.0000000000000000000 ) ) ;
#124 = PERSON_AND_ORGANIZATION ( #31, #33 ) ;
#125 = DESIGN_CONTEXT ( 'detailed design', #173, 'design' ) ;
#126 = APPROVAL_PERSON_ORGANIZATION ( #185, #79, #222 ) ;
#127 = CC_DESIGN_APPROVAL ( #157, ( #205 ) ) ;
#128 = PERSON_AND_ORGANIZATION ( #31, #33 ) ;
#129 = DIRECTION ( 'NONE',  ( 3.491481338843133355E-15, -1.224646799147353207E-16, 1.000000000000000000 ) ) ;
#130 = DIRECTION ( 'NONE',  ( 4.275831445896958607E-31, 1.000000000000000000, 1.224646799147353207E-16 ) ) ;
#131 = DIRECTION ( 'NONE',  ( 3.491481338843133355E-15, -1.227517819005651059E-16, 1.000000000000000000 ) ) ;
#132 = FACE_OUTER_BOUND ( 'NONE', #213, .T. ) ;
#133 = DIRECTION ( 'NONE',  ( -3.491481338843133355E-15, 1.224646799147353207E-16, -1.000000000000000000 ) ) ;
#134 = DIRECTION ( 'NONE',  ( 3.491481338843133355E-15, -1.227517819005651059E-16, 1.000000000000000000 ) ) ;
#135 = AXIS2_PLACEMENT_3D ( 'NONE', #67, #56, #37 ) ;
#136 = VERTEX_POINT ( 'NONE', #139 ) ;
#137 = CC_DESIGN_DATE_AND_TIME_ASSIGNMENT ( #78, #13, ( #205 ) ) ;
#138 = PERSON_AND_ORGANIZATION ( #31, #33 ) ;
#139 = CARTESIAN_POINT ( 'NONE',  ( 1.920314736363723030E-14, -1.100000000000001643, 5.499999999999999112 ) ) ;
#140 = DIRECTION ( 'NONE',  ( -4.285855558155653280E-31, -1.000000000000000000, -1.227517819005651059E-16 ) ) ;
#141 = PERSON_AND_ORGANIZATION ( #31, #33 ) ;
#142 = SHAPE_DEFINITION_REPRESENTATION ( #152, #46 ) ;
#143 = ORIENTED_EDGE ( 'NONE', *, *, #164, .T. ) ;
#144 = CALENDAR_DATE ( 2021, 16, 11 ) ;
#145 = DIRECTION ( 'NONE',  ( -4.275831445896958607E-31, -1.000000000000000000, -1.224646799147353207E-16 ) ) ;
#146 = AXIS2_PLACEMENT_3D ( 'NONE', #193, #148, #130 ) ;
#147 = CC_DESIGN_APPROVAL ( #111, ( #195 ) ) ;
#148 = DIRECTION ( 'NONE',  ( -3.491481338843133355E-15, 1.224646799147353207E-16, -1.000000000000000000 ) ) ;
#149 = EDGE_CURVE ( 'NONE', #136, #136, #83, .T. ) ;
#150 = APPROVAL_STATUS ( 'not_yet_approved' ) ;
#151 = EDGE_LOOP ( 'NONE', ( #16 ) ) ;
#152 = PRODUCT_DEFINITION_SHAPE ( 'NONE', 'NONE',  #195 ) ;
#153 = DIRECTION ( 'NONE',  ( 0.0000000000000000000, -1.000000000000000000, 0.0000000000000000000 ) ) ;
#154 = FACE_OUTER_BOUND ( 'NONE', #189, .T. ) ;
#155 = APPROVAL_STATUS ( 'not_yet_approved' ) ;
#156 = APPROVAL_ROLE ( '' ) ;
#157 = APPROVAL ( #208, 'UNSPECIFIED' ) ;
#158 = AXIS2_PLACEMENT_3D ( 'NONE', #215, #176, #9 ) ;
#159 = DIRECTION ( 'NONE',  ( -3.491481338843133355E-15, 1.224646799147353207E-16, -1.000000000000000000 ) ) ;
#160 = ADVANCED_FACE ( 'NONE', ( #132, #117 ), #223, .T. ) ;
#161 = AXIS2_PLACEMENT_3D ( 'NONE', #71, #129, #145 ) ;
#162 = DATE_AND_TIME ( #166, #24 ) ;
#163 = SECURITY_CLASSIFICATION_LEVEL ( 'unclassified' ) ;
#164 = EDGE_CURVE ( 'NONE', #73, #73, #91, .T. ) ;
#165 = ORIENTED_EDGE ( 'NONE', *, *, #62, .F. ) ;
#166 = CALENDAR_DATE ( 2021, 16, 11 ) ;
#167 = DIRECTION ( 'NONE',  ( 4.275831445896958607E-31, 1.000000000000000000, 1.224646799147353207E-16 ) ) ;
#168 = DIRECTION ( 'NONE',  ( 3.491481338843133355E-15, -1.227517819005651059E-16, 1.000000000000000000 ) ) ;
#169 = EDGE_CURVE ( 'NONE', #217, #217, #14, .T. ) ;
#170 = ORIENTED_EDGE ( 'NONE', *, *, #118, .F. ) ;
#171 = EDGE_LOOP ( 'NONE', ( #119 ) ) ;
#172 = MECHANICAL_CONTEXT ( 'NONE', #61, 'mechanical' ) ;
#173 = APPLICATION_CONTEXT ( 'configuration controlled 3d designs of mechanical parts and assemblies' ) ;
#174 = APPROVAL_DATE_TIME ( #197, #111 ) ;
#175 = AXIS2_PLACEMENT_3D ( 'NONE', #64, #159, #120 ) ;
#176 = DIRECTION ( 'NONE',  ( -3.491481338843133355E-15, 1.227517819005651059E-16, -1.000000000000000000 ) ) ;
#177 = ADVANCED_FACE ( 'NONE', ( #58, #43 ), #196, .T. ) ;
#178 = MANIFOLD_SOLID_BREP ( 'Corps-Déplacer/Copier1[2]', #12 ) ;
#179 = DIRECTION ( 'NONE',  ( 0.0000000000000000000, 0.0000000000000000000, 1.000000000000000000 ) ) ;
#180 = MANIFOLD_SOLID_BREP ( 'Corps-Déplacer/Copier1[1]', #101 ) ;
#181 = APPROVAL_DATE_TIME ( #162, #79 ) ;
#182 = AXIS2_PLACEMENT_3D ( 'NONE', #39, #115, #191 ) ;
#183 = CC_DESIGN_APPROVAL ( #79, ( #109 ) ) ;
#184 = CC_DESIGN_PERSON_AND_ORGANIZATION_ASSIGNMENT ( #128, #86, ( #109 ) ) ;
#185 = PERSON_AND_ORGANIZATION ( #31, #33 ) ;
#186 = COORDINATED_UNIVERSAL_TIME_OFFSET ( 1, 0, .AHEAD. ) ;
#187 = EDGE_CURVE ( 'NONE', #74, #74, #77, .T. ) ;
#188 = EDGE_LOOP ( 'NONE', ( #165 ) ) ;
#189 = EDGE_LOOP ( 'NONE', ( #87 ) ) ;
#190 = CC_DESIGN_SECURITY_CLASSIFICATION ( #205, ( #109 ) ) ;
#191 = DIRECTION ( 'NONE',  ( -4.285855558155653280E-31, -1.000000000000000000, -1.227517819005651059E-16 ) ) ;
#192 = PLANE ( 'NONE',  #201 ) ;
#193 = CARTESIAN_POINT ( 'NONE',  ( 1.326762908760390423E-13, 8.998558695971053960E-33, 38.00000000000000000 ) ) ;
#194 = AXIS2_PLACEMENT_3D ( 'NONE', #25, #218, #72 ) ;
#195 = PRODUCT_DEFINITION ( 'UNKNOWN', '', #109, #125 ) ;
#196 = CYLINDRICAL_SURFACE ( 'NONE', #220, 1.100000000000000311 ) ;
#197 = DATE_AND_TIME ( #121, #202 ) ;
#198 = CARTESIAN_POINT ( 'NONE',  ( -9.428882227942432661E-31, -1.099999999999999423, -2.700539201812430653E-16 ) ) ;
#199 = CARTESIAN_POINT ( 'NONE',  ( -6.413731847436034514E-31, 0.0000000000000000000, -1.836965810494968570E-16 ) ) ;
#200 =( LENGTH_UNIT ( ) NAMED_UNIT ( * ) SI_UNIT ( .MILLI., .METRE. ) );
#201 = AXIS2_PLACEMENT_3D ( 'NONE', #89, #4, #209 ) ;
#202 = LOCAL_TIME ( 16, 36, 15.00000000000000000, #59 ) ;
#203 = CC_DESIGN_PERSON_AND_ORGANIZATION_ASSIGNMENT ( #124, #108, ( #195 ) ) ;
#204 = PERSON_AND_ORGANIZATION ( #31, #33 ) ;
#205 = SECURITY_CLASSIFICATION ( '', '', #163 ) ;
#206 = DATE_TIME_ROLE ( 'creation_date' ) ;
#207 = EDGE_LOOP ( 'NONE', ( #51 ) ) ;
#208 = APPROVAL_STATUS ( 'not_yet_approved' ) ;
#209 = DIRECTION ( 'NONE',  ( -4.275831445896958607E-31, -1.000000000000000000, -1.224646799147353207E-16 ) ) ;
#210 = TOROIDAL_SURFACE ( 'NONE', #57, 9.099999999999999645, 8.000000000000000000 ) ;
#211 = PLANE ( 'NONE',  #146 ) ;
#212 = AXIS2_PLACEMENT_3D ( 'NONE', #8, #105, #45 ) ;
#213 = EDGE_LOOP ( 'NONE', ( #112 ) ) ;
#214 = ORIENTED_EDGE ( 'NONE', *, *, #187, .T. ) ;
#215 = CARTESIAN_POINT ( 'NONE',  ( 2.792486495264545355E-14, -3.066338529075440439E-16, 7.997999199359339784 ) ) ;
#216 = APPROVAL_PERSON_ORGANIZATION ( #141, #157, #95 ) ;
#217 = VERTEX_POINT ( 'NONE', #104 ) ;
#218 = DIRECTION ( 'NONE',  ( -3.491481338843133355E-15, 1.224646799147353207E-16, -1.000000000000000000 ) ) ;
#219 = CARTESIAN_POINT ( 'NONE',  ( 2.792486495264545355E-14, 1.499999999999994671, 7.997999199359339784 ) ) ;
#220 = AXIS2_PLACEMENT_3D ( 'NONE', #199, #134, #140 ) ;
#221 = UNCERTAINTY_MEASURE_WITH_UNIT (LENGTH_MEASURE( 1.000000000000000082E-05 ), #200, 'distance_accuracy_value', 'NONE');
#222 = APPROVAL_ROLE ( '' ) ;
#223 = CONICAL_SURFACE ( 'NONE', #212, 1.199999999999996847, 0.7853981633974453924 ) ;
ENDSEC;
END-ISO-10303-21;
