ISO-10303-21;
HEADER;
FILE_DESCRIPTION (( 'STEP AP203' ),
    '1' );
FILE_NAME ('966097.step',
    '2021-11-16T15:36:15',
    ( '' ),
    ( '' ),
    'SwSTEP 2.0',
    'SolidWorks 2019',
    '' );
FILE_SCHEMA (( 'CONFIG_CONTROL_DESIGN' ));
ENDSEC;

DATA;
#1 = APPROVAL_PERSON_ORGANIZATION ( #145, #79, #167 ) ;
#2 = DIRECTION ( 'NONE',  ( 3.491481338843133355E-15, -1.224646799147353207E-16, 1.000000000000000000 ) ) ;
#3 = AXIS2_PLACEMENT_3D ( 'NONE', #71, #122, #104 ) ;
#4 = CARTESIAN_POINT ( 'NONE',  ( -4.275811853558651348E-31, 1.499752910594655314E-32, -1.224641187678636516E-16 ) ) ;
#5 = DIRECTION ( 'NONE',  ( 3.491481338843133355E-15, -1.224646799147353207E-16, 1.000000000000000000 ) ) ;
#6 = SECURITY_CLASSIFICATION ( '', '', #111 ) ;
#7 = AXIS2_PLACEMENT_3D ( 'NONE', #118, #114, #40 ) ;
#8 = VERTEX_POINT ( 'NONE', #144 ) ;
#9 = CC_DESIGN_DATE_AND_TIME_ASSIGNMENT ( #205, #62, ( #14 ) ) ;
#10 = CONICAL_SURFACE ( 'NONE', #125, 1.199999999999996847, 0.7853981633974453924 ) ;
#11 = PERSON_AND_ORGANIZATION ( #192, #176 ) ;
#12 = APPROVAL_DATE_TIME ( #202, #140 ) ;
#13 = EDGE_LOOP ( 'NONE', ( #168 ) ) ;
#14 = PRODUCT_DEFINITION ( 'UNKNOWN', '', #57, #120 ) ;
#15 = CALENDAR_DATE ( 2021, 16, 11 ) ;
#16 = AXIS2_PLACEMENT_3D ( 'NONE', #95, #164, #39 ) ;
#17 = ORIENTED_EDGE ( 'NONE', *, *, #56, .T. ) ;
#18 = DIRECTION ( 'NONE',  ( 3.491481338843133355E-15, -1.224646799147353207E-16, 1.000000000000000000 ) ) ;
#19 = DIRECTION ( 'NONE',  ( -3.491481338843133355E-15, 1.224646799147353207E-16, -1.000000000000000000 ) ) ;
#20 = AXIS2_PLACEMENT_3D ( 'NONE', #223, #18, #191 ) ;
#21 = CARTESIAN_POINT ( 'NONE',  ( 1.326762908760390423E-13, 8.998558695971053960E-33, 38.00000000000000000 ) ) ;
#22 = EDGE_CURVE ( 'NONE', #195, #195, #37, .T. ) ;
#23 =( NAMED_UNIT ( * ) SI_UNIT ( $, .STERADIAN. ) SOLID_ANGLE_UNIT ( ) );
#24 = VERTEX_POINT ( 'NONE', #92 ) ;
#25 = CC_DESIGN_APPROVAL ( #174, ( #14 ) ) ;
#26 = CARTESIAN_POINT ( 'NONE',  ( -9.000296672126865231E-31, -1.049999999999999378, -2.577787419911865399E-16 ) ) ;
#27 = COORDINATED_UNIVERSAL_TIME_OFFSET ( 1, 0, .AHEAD. ) ;
#28 = DIRECTION ( 'NONE',  ( 0.0000000000000000000, 1.000000000000000000, 0.0000000000000000000 ) ) ;
#29 = EDGE_LOOP ( 'NONE', ( #34 ) ) ;
#30 = CC_DESIGN_APPROVAL ( #140, ( #57 ) ) ;
#31 = DATE_TIME_ROLE ( 'classification_date' ) ;
#32 = EDGE_LOOP ( 'NONE', ( #203 ) ) ;
#33 = PERSON_AND_ORGANIZATION ( #192, #176 ) ;
#34 = ORIENTED_EDGE ( 'NONE', *, *, #56, .F. ) ;
#35 = DIRECTION ( 'NONE',  ( -3.491481338843133355E-15, 1.224646799147353207E-16, -1.000000000000000000 ) ) ;
#36 = FACE_BOUND ( 'NONE', #129, .T. ) ;
#37 = CIRCLE ( 'NONE', #196, 1.499999999999996669 ) ;
#38 = CYLINDRICAL_SURFACE ( 'NONE', #134, 1.049999999999999378 ) ;
#39 = DIRECTION ( 'NONE',  ( 0.0000000000000000000, 1.000000000000000000, 0.0000000000000000000 ) ) ;
#40 = DIRECTION ( 'NONE',  ( 0.0000000000000000000, 1.000000000000000000, 0.0000000000000000000 ) ) ;
#41 = CARTESIAN_POINT ( 'NONE',  ( 2.756621864153852049E-14, 1.499999999999994671, 7.895278813282245345 ) ) ;
#42 =( NAMED_UNIT ( * ) PLANE_ANGLE_UNIT ( ) SI_UNIT ( $, .RADIAN. ) );
#43 = APPROVAL_DATE_TIME ( #162, #174 ) ;
#44 = EDGE_LOOP ( 'NONE', ( #185 ) ) ;
#45 = CALENDAR_DATE ( 2021, 16, 11 ) ;
#46 = APPLICATION_CONTEXT ( 'configuration controlled 3d designs of mechanical parts and assemblies' ) ;
#47 = PERSON_AND_ORGANIZATION ( #192, #176 ) ;
#48 = PERSON_AND_ORGANIZATION_ROLE ( 'creator' ) ;
#49 = ORIENTED_EDGE ( 'NONE', *, *, #160, .T. ) ;
#50 = DIRECTION ( 'NONE',  ( 1.000000000000000000, 0.0000000000000000000, 0.0000000000000000000 ) ) ;
#51 = FACE_OUTER_BOUND ( 'NONE', #206, .T. ) ;
#52 = DIRECTION ( 'NONE',  ( 0.0000000000000000000, -1.000000000000000000, 0.0000000000000000000 ) ) ;
#53 = PLANE ( 'NONE',  #20 ) ;
#54 = CARTESIAN_POINT ( 'NONE',  ( 1.833027702892644696E-14, 0.0000000000000000000, 5.249999999999999112 ) ) ;
#55 = DIRECTION ( 'NONE',  ( 4.275831445896958607E-31, 1.000000000000000000, 1.224646799147353207E-16 ) ) ;
#56 = EDGE_CURVE ( 'NONE', #58, #58, #159, .T. ) ;
#57 = PRODUCT_DEFINITION_FORMATION_WITH_SPECIFIED_SOURCE ( 'ANY', '', #169, .NOT_KNOWN. ) ;
#58 = VERTEX_POINT ( 'NONE', #41 ) ;
#59 = EDGE_CURVE ( 'NONE', #24, #24, #166, .T. ) ;
#60 = LOCAL_TIME ( 16, 36, 15.00000000000000000, #27 ) ;
#61 = ADVANCED_BREP_SHAPE_REPRESENTATION ( '966097', ( #188, #182, #119 ), #141 ) ;
#62 = DATE_TIME_ROLE ( 'creation_date' ) ;
#63 = CIRCLE ( 'NONE', #3, 1.049999999999999600 ) ;
#64 = ADVANCED_FACE ( 'NONE', ( #155, #171 ), #153, .F. ) ;
#65 = APPROVAL_STATUS ( 'not_yet_approved' ) ;
#66 = MECHANICAL_CONTEXT ( 'NONE', #46, 'mechanical' ) ;
#67 = ORIENTED_EDGE ( 'NONE', *, *, #150, .F. ) ;
#68 = PRODUCT_DEFINITION_SHAPE ( 'NONE', 'NONE',  #14 ) ;
#69 = AXIS2_PLACEMENT_3D ( 'NONE', #4, #2, #211 ) ;
#70 = FACE_OUTER_BOUND ( 'NONE', #221, .T. ) ;
#71 = CARTESIAN_POINT ( 'NONE',  ( 1.833027702892644696E-14, -6.444468549779667441E-16, 5.249999999999999112 ) ) ;
#72 = DIRECTION ( 'NONE',  ( -4.285855558155651528E-31, -1.000000000000000000, -1.227517819005650812E-16 ) ) ;
#73 = ADVANCED_FACE ( 'NONE', ( #135 ), #213, .F. ) ;
#74 = CARTESIAN_POINT ( 'NONE',  ( 0.0000000000000000000, 0.0000000000000000000, 0.0000000000000000000 ) ) ;
#75 = DIRECTION ( 'NONE',  ( -4.275831445896958607E-31, -1.000000000000000000, -1.224646799147353207E-16 ) ) ;
#76 =( LENGTH_UNIT ( ) NAMED_UNIT ( * ) SI_UNIT ( .MILLI., .METRE. ) );
#77 = APPLICATION_PROTOCOL_DEFINITION ( 'international standard', 'config_control_design', 1994, #214 ) ;
#78 = PERSON_AND_ORGANIZATION ( #192, #176 ) ;
#79 = APPROVAL ( #200, 'UNSPECIFIED' ) ;
#80 = APPROVAL_ROLE ( '' ) ;
#81 = APPROVAL_ROLE ( '' ) ;
#82 = LOCAL_TIME ( 16, 36, 15.00000000000000000, #112 ) ;
#83 = COORDINATED_UNIVERSAL_TIME_OFFSET ( 1, 0, .AHEAD. ) ;
#84 = EDGE_LOOP ( 'NONE', ( #179 ) ) ;
#85 = FACE_OUTER_BOUND ( 'NONE', #44, .T. ) ;
#86 = AXIS2_PLACEMENT_3D ( 'NONE', #21, #35, #222 ) ;
#87 = FACE_OUTER_BOUND ( 'NONE', #13, .T. ) ;
#88 = CC_DESIGN_SECURITY_CLASSIFICATION ( #6, ( #57 ) ) ;
#89 = CARTESIAN_POINT ( 'NONE',  ( 1.833027702892645012E-14, 1.124819836996386911E-32, 5.250000000000000000 ) ) ;
#90 = CIRCLE ( 'NONE', #94, 1.049999999999999378 ) ;
#91 = ADVANCED_FACE ( 'NONE', ( #87 ), #99, .F. ) ;
#92 = CARTESIAN_POINT ( 'NONE',  ( 1.326762908760390423E-13, 1.199999999999992406, 38.00000000000000000 ) ) ;
#93 = PERSON_AND_ORGANIZATION_ROLE ( 'design_owner' ) ;
#94 = AXIS2_PLACEMENT_3D ( 'NONE', #172, #116, #72 ) ;
#95 = CARTESIAN_POINT ( 'NONE',  ( 2.756621864153852049E-14, -3.247126879542079301E-16, 7.895278813282245345 ) ) ;
#96 = EDGE_LOOP ( 'NONE', ( #17 ) ) ;
#97 = APPROVAL_STATUS ( 'not_yet_approved' ) ;
#98 = SHAPE_DEFINITION_REPRESENTATION ( #68, #61 ) ;
#99 = PLANE ( 'NONE',  #86 ) ;
#100 = CLOSED_SHELL ( 'NONE', ( #132, #198, #91, #64, #102 ) ) ;
#101 = CARTESIAN_POINT ( 'NONE',  ( -6.413731847436034514E-31, 0.0000000000000000000, -1.836965810494968570E-16 ) ) ;
#102 = ADVANCED_FACE ( 'NONE', ( #103 ), #53, .F. ) ;
#103 = FACE_OUTER_BOUND ( 'NONE', #113, .T. ) ;
#104 = DIRECTION ( 'NONE',  ( 0.0000000000000000000, -1.000000000000000000, 0.0000000000000000000 ) ) ;
#105 = CLOSED_SHELL ( 'NONE', ( #154, #117, #73 ) ) ;
#106 = CARTESIAN_POINT ( 'NONE',  ( 1.833027702892644696E-14, -1.050000000000000044, 5.249999999999999112 ) ) ;
#107 = EDGE_CURVE ( 'NONE', #123, #123, #90, .T. ) ;
#108 = PERSON_AND_ORGANIZATION ( #192, #176 ) ;
#109 = ORIENTED_EDGE ( 'NONE', *, *, #107, .F. ) ;
#110 = DIRECTION ( 'NONE',  ( -3.491481338843133355E-15, 1.224646799147353207E-16, -1.000000000000000000 ) ) ;
#111 = SECURITY_CLASSIFICATION_LEVEL ( 'unclassified' ) ;
#112 = COORDINATED_UNIVERSAL_TIME_OFFSET ( 1, 0, .AHEAD. ) ;
#113 = EDGE_LOOP ( 'NONE', ( #67 ) ) ;
#114 = DIRECTION ( 'NONE',  ( -3.491481338843133355E-15, 1.224646799147353207E-16, -1.000000000000000000 ) ) ;
#115 = CC_DESIGN_PERSON_AND_ORGANIZATION_ASSIGNMENT ( #108, #48, ( #57 ) ) ;
#116 = DIRECTION ( 'NONE',  ( 3.491481338843133355E-15, -1.227517819005651059E-16, 1.000000000000000000 ) ) ;
#117 = ADVANCED_FACE ( 'NONE', ( #85, #70 ), #38, .T. ) ;
#118 = CARTESIAN_POINT ( 'NONE',  ( 1.326762908760390423E-13, -4.653657836759941941E-15, 38.00000000000000000 ) ) ;
#119 = AXIS2_PLACEMENT_3D ( 'NONE', #184, #219, #50 ) ;
#120 = DESIGN_CONTEXT ( 'detailed design', #214, 'design' ) ;
#121 = DIRECTION ( 'NONE',  ( -4.285855558155651528E-31, -1.000000000000000000, -1.227517819005650812E-16 ) ) ;
#122 = DIRECTION ( 'NONE',  ( 3.491481338843133355E-15, -1.227517819005651059E-16, 1.000000000000000000 ) ) ;
#123 = VERTEX_POINT ( 'NONE', #26 ) ;
#124 = APPLICATION_PROTOCOL_DEFINITION ( 'international standard', 'config_control_design', 1994, #46 ) ;
#125 = AXIS2_PLACEMENT_3D ( 'NONE', #170, #19, #210 ) ;
#126 = PERSON_AND_ORGANIZATION ( #192, #176 ) ;
#127 = LOCAL_TIME ( 16, 36, 15.00000000000000000, #181 ) ;
#128 = PERSON_AND_ORGANIZATION_ROLE ( 'design_supplier' ) ;
#129 = EDGE_LOOP ( 'NONE', ( #165 ) ) ;
#130 = COORDINATED_UNIVERSAL_TIME_OFFSET ( 1, 0, .AHEAD. ) ;
#131 = ORIENTED_EDGE ( 'NONE', *, *, #160, .F. ) ;
#132 = ADVANCED_FACE ( 'NONE', ( #51, #156 ), #136, .T. ) ;
#133 = EDGE_LOOP ( 'NONE', ( #109 ) ) ;
#134 = AXIS2_PLACEMENT_3D ( 'NONE', #101, #137, #121 ) ;
#135 = FACE_OUTER_BOUND ( 'NONE', #133, .T. ) ;
#136 = CYLINDRICAL_SURFACE ( 'NONE', #175, 1.499999999999994893 ) ;
#137 = DIRECTION ( 'NONE',  ( 3.491481338843133355E-15, -1.227517819005651059E-16, 1.000000000000000000 ) ) ;
#138 = AXIS2_PLACEMENT_3D ( 'NONE', #208, #209, #52 ) ;
#139 = DIRECTION ( 'NONE',  ( -3.491481338843133355E-15, 1.224646799147353207E-16, -1.000000000000000000 ) ) ;
#140 = APPROVAL ( #97, 'UNSPECIFIED' ) ;
#141 =( GEOMETRIC_REPRESENTATION_CONTEXT ( 3 ) GLOBAL_UNCERTAINTY_ASSIGNED_CONTEXT ( ( #193 ) ) GLOBAL_UNIT_ASSIGNED_CONTEXT ( ( #76, #42, #23 ) ) REPRESENTATION_CONTEXT ( 'NONE', 'WORKASPACE' ) );
#142 = VERTEX_POINT ( 'NONE', #106 ) ;
#143 = CC_DESIGN_DATE_AND_TIME_ASSIGNMENT ( #217, #31, ( #6 ) ) ;
#144 = CARTESIAN_POINT ( 'NONE',  ( 1.833027702892644696E-14, -1.050000000000000044, 5.249999999999999112 ) ) ;
#145 = PERSON_AND_ORGANIZATION ( #192, #176 ) ;
#146 = CC_DESIGN_APPROVAL ( #79, ( #6 ) ) ;
#147 = PERSON_AND_ORGANIZATION_ROLE ( 'creator' ) ;
#148 = CC_DESIGN_PERSON_AND_ORGANIZATION_ASSIGNMENT ( #47, #128, ( #57 ) ) ;
#149 = LOCAL_TIME ( 16, 36, 15.00000000000000000, #83 ) ;
#150 = EDGE_CURVE ( 'NONE', #142, #142, #63, .T. ) ;
#151 = CALENDAR_DATE ( 2021, 16, 11 ) ;
#152 = ORIENTED_EDGE ( 'NONE', *, *, #22, .T. ) ;
#153 = TOROIDAL_SURFACE ( 'NONE', #161, 9.049999999999998934, 8.000000000000000000 ) ;
#154 = ADVANCED_FACE ( 'NONE', ( #194 ), #173, .T. ) ;
#155 = FACE_OUTER_BOUND ( 'NONE', #32, .T. ) ;
#156 = FACE_OUTER_BOUND ( 'NONE', #29, .T. ) ;
#157 = CC_DESIGN_PERSON_AND_ORGANIZATION_ASSIGNMENT ( #216, #93, ( #169 ) ) ;
#158 = DIRECTION ( 'NONE',  ( 3.491481338843133355E-15, -1.227517819005651059E-16, 1.000000000000000000 ) ) ;
#159 = CIRCLE ( 'NONE', #16, 1.499999999999994893 ) ;
#160 = EDGE_CURVE ( 'NONE', #8, #8, #207, .T. ) ;
#161 = AXIS2_PLACEMENT_3D ( 'NONE', #54, #158, #187 ) ;
#162 = DATE_AND_TIME ( #15, #149 ) ;
#163 = EDGE_LOOP ( 'NONE', ( #49 ) ) ;
#164 = DIRECTION ( 'NONE',  ( -3.491481338843133355E-15, 1.227517819005651059E-16, -1.000000000000000000 ) ) ;
#165 = ORIENTED_EDGE ( 'NONE', *, *, #59, .T. ) ;
#166 = CIRCLE ( 'NONE', #7, 1.199999999999996847 ) ;
#167 = APPROVAL_ROLE ( '' ) ;
#168 = ORIENTED_EDGE ( 'NONE', *, *, #59, .F. ) ;
#169 = PRODUCT ( '966097', '966097', '', ( #66 ) ) ;
#170 = CARTESIAN_POINT ( 'NONE',  ( 1.326762908760390423E-13, -4.653657836759941941E-15, 38.00000000000000000 ) ) ;
#171 = FACE_OUTER_BOUND ( 'NONE', #96, .T. ) ;
#172 = CARTESIAN_POINT ( 'NONE',  ( -4.500148336063433491E-31, -6.727682695115232473E-33, -1.288893709955932699E-16 ) ) ;
#173 = PLANE ( 'NONE',  #190 ) ;
#174 = APPROVAL ( #65, 'UNSPECIFIED' ) ;
#175 = AXIS2_PLACEMENT_3D ( 'NONE', #74, #139, #55 ) ;
#176 = ORGANIZATION ( 'UNSPECIFIED', 'UNSPECIFIED', '' ) ;
#177 = APPROVAL_PERSON_ORGANIZATION ( #78, #140, #81 ) ;
#178 = CALENDAR_DATE ( 2021, 16, 11 ) ;
#179 = ORIENTED_EDGE ( 'NONE', *, *, #22, .F. ) ;
#180 = PRODUCT_RELATED_PRODUCT_CATEGORY ( 'detail', '', ( #169 ) ) ;
#181 = COORDINATED_UNIVERSAL_TIME_OFFSET ( 1, 0, .AHEAD. ) ;
#182 = MANIFOLD_SOLID_BREP ( 'Corps-Déplacer/Copier1[2]', #105 ) ;
#183 = PERSON_AND_ORGANIZATION_ROLE ( 'classification_officer' ) ;
#184 = CARTESIAN_POINT ( 'NONE',  ( 0.0000000000000000000, 0.0000000000000000000, 0.0000000000000000000 ) ) ;
#185 = ORIENTED_EDGE ( 'NONE', *, *, #107, .T. ) ;
#186 = APPROVAL_DATE_TIME ( #220, #79 ) ;
#187 = DIRECTION ( 'NONE',  ( -4.348155369072392588E-31, -1.000000000000000000, -1.227517819005651059E-16 ) ) ;
#188 = MANIFOLD_SOLID_BREP ( 'Corps-Déplacer/Copier1[1]', #100 ) ;
#189 = FACE_OUTER_BOUND ( 'NONE', #84, .T. ) ;
#190 = AXIS2_PLACEMENT_3D ( 'NONE', #89, #5, #75 ) ;
#191 = DIRECTION ( 'NONE',  ( -4.275831445896958607E-31, -1.000000000000000000, -1.224646799147353207E-16 ) ) ;
#192 = PERSON ( 'UNSPECIFIED', 'UNSPECIFIED', 'UNSPECIFIED', ('UNSPECIFIED'), ('UNSPECIFIED'), ('UNSPECIFIED') ) ;
#193 = UNCERTAINTY_MEASURE_WITH_UNIT (LENGTH_MEASURE( 1.000000000000000082E-05 ), #76, 'distance_accuracy_value', 'NONE');
#194 = FACE_OUTER_BOUND ( 'NONE', #163, .T. ) ;
#195 = VERTEX_POINT ( 'NONE', #215 ) ;
#196 = AXIS2_PLACEMENT_3D ( 'NONE', #201, #110, #28 ) ;
#197 = CC_DESIGN_PERSON_AND_ORGANIZATION_ASSIGNMENT ( #33, #183, ( #6 ) ) ;
#198 = ADVANCED_FACE ( 'NONE', ( #189, #36 ), #10, .T. ) ;
#199 = CALENDAR_DATE ( 2021, 16, 11 ) ;
#200 = APPROVAL_STATUS ( 'not_yet_approved' ) ;
#201 = CARTESIAN_POINT ( 'NONE',  ( 1.316288464743861212E-13, -4.616918432785521081E-15, 37.69999999999999574 ) ) ;
#202 = DATE_AND_TIME ( #199, #204 ) ;
#203 = ORIENTED_EDGE ( 'NONE', *, *, #150, .T. ) ;
#204 = LOCAL_TIME ( 16, 36, 15.00000000000000000, #130 ) ;
#205 = DATE_AND_TIME ( #45, #82 ) ;
#206 = EDGE_LOOP ( 'NONE', ( #152 ) ) ;
#207 = CIRCLE ( 'NONE', #138, 1.049999999999999600 ) ;
#208 = CARTESIAN_POINT ( 'NONE',  ( 1.833027702892644696E-14, -6.444468549779667441E-16, 5.249999999999999112 ) ) ;
#209 = DIRECTION ( 'NONE',  ( 3.491481338843133355E-15, -1.227517819005651059E-16, 1.000000000000000000 ) ) ;
#210 = DIRECTION ( 'NONE',  ( 0.0000000000000000000, 1.000000000000000000, 0.0000000000000000000 ) ) ;
#211 = DIRECTION ( 'NONE',  ( -4.275831445896958607E-31, -1.000000000000000000, -1.224646799147353207E-16 ) ) ;
#212 = CC_DESIGN_PERSON_AND_ORGANIZATION_ASSIGNMENT ( #11, #147, ( #14 ) ) ;
#213 = PLANE ( 'NONE',  #69 ) ;
#214 = APPLICATION_CONTEXT ( 'configuration controlled 3d designs of mechanical parts and assemblies' ) ;
#215 = CARTESIAN_POINT ( 'NONE',  ( 1.316288464743861212E-13, 1.499999999999992228, 37.69999999999999574 ) ) ;
#216 = PERSON_AND_ORGANIZATION ( #192, #176 ) ;
#217 = DATE_AND_TIME ( #151, #127 ) ;
#218 = APPROVAL_PERSON_ORGANIZATION ( #126, #174, #80 ) ;
#219 = DIRECTION ( 'NONE',  ( 0.0000000000000000000, 0.0000000000000000000, 1.000000000000000000 ) ) ;
#220 = DATE_AND_TIME ( #178, #60 ) ;
#221 = EDGE_LOOP ( 'NONE', ( #131 ) ) ;
#222 = DIRECTION ( 'NONE',  ( 4.275831445896958607E-31, 1.000000000000000000, 1.224646799147353207E-16 ) ) ;
#223 = CARTESIAN_POINT ( 'NONE',  ( 1.833027702892645012E-14, 1.124819836996386911E-32, 5.250000000000000000 ) ) ;
ENDSEC;
END-ISO-10303-21;
