ISO-10303-21;
HEADER;
FILE_DESCRIPTION (( 'STEP AP203' ),
    '1' );
FILE_NAME ('966096.step',
    '2021-11-16T15:36:14',
    ( '' ),
    ( '' ),
    'SwSTEP 2.0',
    'SolidWorks 2019',
    '' );
FILE_SCHEMA (( 'CONFIG_CONTROL_DESIGN' ));
ENDSEC;

DATA;
#1 = PERSON_AND_ORGANIZATION ( #44, #222 ) ;
#2 = FACE_OUTER_BOUND ( 'NONE', #64, .T. ) ;
#3 = AXIS2_PLACEMENT_3D ( 'NONE', #180, #201, #209 ) ;
#4 = DIRECTION ( 'NONE',  ( 0.0000000000000000000, -1.000000000000000000, 0.0000000000000000000 ) ) ;
#5 = APPROVAL ( #58, 'UNSPECIFIED' ) ;
#6 = DIRECTION ( 'NONE',  ( 3.491481338843133355E-15, -1.224646799147353207E-16, 1.000000000000000000 ) ) ;
#7 = CARTESIAN_POINT ( 'NONE',  ( 1.658453635950488028E-14, 1.124819836996386911E-32, 4.750000000000000000 ) ) ;
#8 = DIRECTION ( 'NONE',  ( 3.491481338843133355E-15, -1.227517819005651059E-16, 1.000000000000000000 ) ) ;
#9 = AXIS2_PLACEMENT_3D ( 'NONE', #61, #130, #119 ) ;
#10 = VERTEX_POINT ( 'NONE', #85 ) ;
#11 = VERTEX_POINT ( 'NONE', #117 ) ;
#12 = PLANE ( 'NONE',  #198 ) ;
#13 = VERTEX_POINT ( 'NONE', #122 ) ;
#14 = AXIS2_PLACEMENT_3D ( 'NONE', #208, #108, #179 ) ;
#15 = DIRECTION ( 'NONE',  ( 4.275831445896958607E-31, 1.000000000000000000, 1.224646799147353207E-16 ) ) ;
#16 = COORDINATED_UNIVERSAL_TIME_OFFSET ( 1, 0, .AHEAD. ) ;
#17 = PRODUCT_RELATED_PRODUCT_CATEGORY ( 'detail', '', ( #127 ) ) ;
#18 =( NAMED_UNIT ( * ) SI_UNIT ( $, .STERADIAN. ) SOLID_ANGLE_UNIT ( ) );
#19 = DATE_TIME_ROLE ( 'classification_date' ) ;
#20 = APPROVAL_PERSON_ORGANIZATION ( #216, #35, #155 ) ;
#21 = CARTESIAN_POINT ( 'NONE',  ( -4.275811853558651348E-31, 1.499752910594655314E-32, -1.224641187678636516E-16 ) ) ;
#22 = AXIS2_PLACEMENT_3D ( 'NONE', #149, #60, #183 ) ;
#23 = DIRECTION ( 'NONE',  ( -4.275831445896958607E-31, -1.000000000000000000, -1.224646799147353207E-16 ) ) ;
#24 = CARTESIAN_POINT ( 'NONE',  ( -4.071562780247868689E-31, -8.234482691091618427E-33, -1.166141928055367939E-16 ) ) ;
#25 = ORIENTED_EDGE ( 'NONE', *, *, #75, .F. ) ;
#26 = DIRECTION ( 'NONE',  ( -3.491481338843133355E-15, 1.224646799147353207E-16, -1.000000000000000000 ) ) ;
#27 = ORIENTED_EDGE ( 'NONE', *, *, #144, .F. ) ;
#28 = FACE_OUTER_BOUND ( 'NONE', #182, .T. ) ;
#29 = FACE_OUTER_BOUND ( 'NONE', #49, .T. ) ;
#30 = ADVANCED_FACE ( 'NONE', ( #116 ), #184, .T. ) ;
#31 = EDGE_LOOP ( 'NONE', ( #114 ) ) ;
#32 = CARTESIAN_POINT ( 'NONE',  ( 0.0000000000000000000, 0.0000000000000000000, 0.0000000000000000000 ) ) ;
#33 = FACE_OUTER_BOUND ( 'NONE', #84, .T. ) ;
#34 = APPLICATION_CONTEXT ( 'configuration controlled 3d designs of mechanical parts and assemblies' ) ;
#35 = APPROVAL ( #65, 'UNSPECIFIED' ) ;
#36 = DATE_AND_TIME ( #52, #163 ) ;
#37 = CYLINDRICAL_SURFACE ( 'NONE', #221, 1.499999999999994893 ) ;
#38 = APPLICATION_PROTOCOL_DEFINITION ( 'international standard', 'config_control_design', 1994, #40 ) ;
#39 = CALENDAR_DATE ( 2021, 16, 11 ) ;
#40 = APPLICATION_CONTEXT ( 'configuration controlled 3d designs of mechanical parts and assemblies' ) ;
#41 = ADVANCED_FACE ( 'NONE', ( #29, #80 ), #37, .T. ) ;
#42 = SECURITY_CLASSIFICATION_LEVEL ( 'unclassified' ) ;
#43 = DESIGN_CONTEXT ( 'detailed design', #40, 'design' ) ;
#44 = PERSON ( 'UNSPECIFIED', 'UNSPECIFIED', 'UNSPECIFIED', ('UNSPECIFIED'), ('UNSPECIFIED'), ('UNSPECIFIED') ) ;
#45 = DIRECTION ( 'NONE',  ( -4.275831445896958607E-31, -1.000000000000000000, -1.224646799147353207E-16 ) ) ;
#46 = ORIENTED_EDGE ( 'NONE', *, *, #177, .T. ) ;
#47 = EDGE_LOOP ( 'NONE', ( #164 ) ) ;
#48 = CIRCLE ( 'NONE', #169, 1.499999999999996669 ) ;
#49 = EDGE_LOOP ( 'NONE', ( #132 ) ) ;
#50 = CARTESIAN_POINT ( 'NONE',  ( 1.658453635950487713E-14, 0.0000000000000000000, 4.749999999999999112 ) ) ;
#51 = PERSON_AND_ORGANIZATION_ROLE ( 'creator' ) ;
#52 = CALENDAR_DATE ( 2021, 16, 11 ) ;
#53 = ADVANCED_FACE ( 'NONE', ( #33 ), #12, .F. ) ;
#54 = VERTEX_POINT ( 'NONE', #168 ) ;
#55 = CC_DESIGN_APPROVAL ( #35, ( #87 ) ) ;
#56 = MANIFOLD_SOLID_BREP ( 'Corps-Déplacer/Copier1[1]', #218 ) ;
#57 = CC_DESIGN_DATE_AND_TIME_ASSIGNMENT ( #74, #19, ( #106 ) ) ;
#58 = APPROVAL_STATUS ( 'not_yet_approved' ) ;
#59 = PRODUCT_DEFINITION ( 'UNKNOWN', '', #87, #43 ) ;
#60 = DIRECTION ( 'NONE',  ( 3.491481338843133355E-15, -1.227517819005651059E-16, 1.000000000000000000 ) ) ;
#61 = CARTESIAN_POINT ( 'NONE',  ( 2.676236915341606000E-14, -3.578272343716901798E-16, 7.665047169429666241 ) ) ;
#62 = CLOSED_SHELL ( 'NONE', ( #30, #146, #53 ) ) ;
#63 = FACE_OUTER_BOUND ( 'NONE', #213, .T. ) ;
#64 = EDGE_LOOP ( 'NONE', ( #46 ) ) ;
#65 = APPROVAL_STATUS ( 'not_yet_approved' ) ;
#66 = TOROIDAL_SURFACE ( 'NONE', #78, 8.949999999999999289, 8.000000000000000000 ) ;
#67 = CARTESIAN_POINT ( 'NONE',  ( 1.316288464743861212E-13, -4.616918432785521081E-15, 37.69999999999999574 ) ) ;
#68 = ADVANCED_FACE ( 'NONE', ( #145, #2 ), #66, .F. ) ;
#69 = VERTEX_POINT ( 'NONE', #157 ) ;
#70 = COORDINATED_UNIVERSAL_TIME_OFFSET ( 1, 0, .AHEAD. ) ;
#71 = PERSON_AND_ORGANIZATION_ROLE ( 'design_owner' ) ;
#72 = LOCAL_TIME ( 16, 36, 14.00000000000000000, #223 ) ;
#73 = SHAPE_DEFINITION_REPRESENTATION ( #158, #178 ) ;
#74 = DATE_AND_TIME ( #174, #175 ) ;
#75 = EDGE_CURVE ( 'NONE', #217, #217, #207, .T. ) ;
#76 = DIRECTION ( 'NONE',  ( 3.491481338843133355E-15, -1.224646799147353207E-16, 1.000000000000000000 ) ) ;
#77 = DIRECTION ( 'NONE',  ( -4.275831445896958607E-31, -1.000000000000000000, -1.224646799147353207E-16 ) ) ;
#78 = AXIS2_PLACEMENT_3D ( 'NONE', #50, #113, #148 ) ;
#79 = CC_DESIGN_SECURITY_CLASSIFICATION ( #106, ( #87 ) ) ;
#80 = FACE_OUTER_BOUND ( 'NONE', #162, .T. ) ;
#81 = CIRCLE ( 'NONE', #14, 1.199999999999996847 ) ;
#82 = CC_DESIGN_APPROVAL ( #172, ( #59 ) ) ;
#83 = FACE_BOUND ( 'NONE', #118, .T. ) ;
#84 = EDGE_LOOP ( 'NONE', ( #27 ) ) ;
#85 = CARTESIAN_POINT ( 'NONE',  ( 1.316288464743861212E-13, 1.499999999999992228, 37.69999999999999574 ) ) ;
#86 =( NAMED_UNIT ( * ) PLANE_ANGLE_UNIT ( ) SI_UNIT ( $, .RADIAN. ) );
#87 = PRODUCT_DEFINITION_FORMATION_WITH_SPECIFIED_SOURCE ( 'ANY', '', #127, .NOT_KNOWN. ) ;
#88 = DATE_AND_TIME ( #170, #121 ) ;
#89 = DATE_AND_TIME ( #171, #92 ) ;
#90 = CC_DESIGN_PERSON_AND_ORGANIZATION_ASSIGNMENT ( #159, #190, ( #87 ) ) ;
#91 = APPROVAL_PERSON_ORGANIZATION ( #1, #5, #125 ) ;
#92 = LOCAL_TIME ( 16, 36, 14.00000000000000000, #137 ) ;
#93 = PLANE ( 'NONE',  #153 ) ;
#94 = EDGE_LOOP ( 'NONE', ( #195 ) ) ;
#95 = DIRECTION ( 'NONE',  ( 3.491481338843133355E-15, -1.227517819005651059E-16, 1.000000000000000000 ) ) ;
#96 = DIRECTION ( 'NONE',  ( 3.491481338843133355E-15, -1.227517819005651059E-16, 1.000000000000000000 ) ) ;
#97 = EDGE_LOOP ( 'NONE', ( #110 ) ) ;
#98 = AXIS2_PLACEMENT_3D ( 'NONE', #7, #100, #77 ) ;
#99 = DATE_TIME_ROLE ( 'creation_date' ) ;
#100 = DIRECTION ( 'NONE',  ( 3.491481338843133355E-15, -1.224646799147353207E-16, 1.000000000000000000 ) ) ;
#101 = DIRECTION ( 'NONE',  ( 0.0000000000000000000, 0.0000000000000000000, 1.000000000000000000 ) ) ;
#102 = CONICAL_SURFACE ( 'NONE', #3, 1.199999999999996847, 0.7853981633974453924 ) ;
#103 = PERSON_AND_ORGANIZATION ( #44, #222 ) ;
#104 = ADVANCED_FACE ( 'NONE', ( #196, #83 ), #102, .T. ) ;
#105 = PERSON_AND_ORGANIZATION_ROLE ( 'classification_officer' ) ;
#106 = SECURITY_CLASSIFICATION ( '', '', #42 ) ;
#107 = ADVANCED_FACE ( 'NONE', ( #133 ), #210, .F. ) ;
#108 = DIRECTION ( 'NONE',  ( -3.491481338843133355E-15, 1.224646799147353207E-16, -1.000000000000000000 ) ) ;
#109 = CARTESIAN_POINT ( 'NONE',  ( 1.326762908760390423E-13, 8.998558695971053960E-33, 38.00000000000000000 ) ) ;
#110 = ORIENTED_EDGE ( 'NONE', *, *, #166, .F. ) ;
#111 = AXIS2_PLACEMENT_3D ( 'NONE', #176, #96, #214 ) ;
#112 = CC_DESIGN_DATE_AND_TIME_ASSIGNMENT ( #88, #99, ( #59 ) ) ;
#113 = DIRECTION ( 'NONE',  ( 3.491481338843133355E-15, -1.227517819005651059E-16, 1.000000000000000000 ) ) ;
#114 = ORIENTED_EDGE ( 'NONE', *, *, #194, .F. ) ;
#115 = CARTESIAN_POINT ( 'NONE',  ( 1.658453635950487713E-14, -5.830709640276842159E-16, 4.749999999999999112 ) ) ;
#116 = FACE_OUTER_BOUND ( 'NONE', #94, .T. ) ;
#117 = CARTESIAN_POINT ( 'NONE',  ( 2.676236915341606000E-14, 1.499999999999994449, 7.665047169429666241 ) ) ;
#118 = EDGE_LOOP ( 'NONE', ( #131 ) ) ;
#119 = DIRECTION ( 'NONE',  ( 0.0000000000000000000, 1.000000000000000000, 0.0000000000000000000 ) ) ;
#120 = DIRECTION ( 'NONE',  ( 1.000000000000000000, 0.0000000000000000000, 0.0000000000000000000 ) ) ;
#121 = LOCAL_TIME ( 16, 36, 14.00000000000000000, #70 ) ;
#122 = CARTESIAN_POINT ( 'NONE',  ( -8.143125560495735626E-31, -0.9499999999999995115, -2.332283856110735877E-16 ) ) ;
#123 = PERSON_AND_ORGANIZATION ( #44, #222 ) ;
#124 = CARTESIAN_POINT ( 'NONE',  ( 0.0000000000000000000, 0.0000000000000000000, 0.0000000000000000000 ) ) ;
#125 = APPROVAL_ROLE ( '' ) ;
#126 = CIRCLE ( 'NONE', #135, 0.9499999999999995115 ) ;
#127 = PRODUCT ( '966096', '966096', '', ( #154 ) ) ;
#128 = APPROVAL_DATE_TIME ( #160, #5 ) ;
#129 = MANIFOLD_SOLID_BREP ( 'Corps-Déplacer/Copier1[2]', #62 ) ;
#130 = DIRECTION ( 'NONE',  ( -3.491481338843133355E-15, 1.227517819005651059E-16, -1.000000000000000000 ) ) ;
#131 = ORIENTED_EDGE ( 'NONE', *, *, #166, .T. ) ;
#132 = ORIENTED_EDGE ( 'NONE', *, *, #194, .T. ) ;
#133 = FACE_OUTER_BOUND ( 'NONE', #97, .T. ) ;
#134 = CC_DESIGN_PERSON_AND_ORGANIZATION_ASSIGNMENT ( #123, #105, ( #106 ) ) ;
#135 = AXIS2_PLACEMENT_3D ( 'NONE', #24, #8, #199 ) ;
#136 = AXIS2_PLACEMENT_3D ( 'NONE', #109, #26, #181 ) ;
#137 = COORDINATED_UNIVERSAL_TIME_OFFSET ( 1, 0, .AHEAD. ) ;
#138 =( GEOMETRIC_REPRESENTATION_CONTEXT ( 3 ) GLOBAL_UNCERTAINTY_ASSIGNED_CONTEXT ( ( #206 ) ) GLOBAL_UNIT_ASSIGNED_CONTEXT ( ( #151, #86, #18 ) ) REPRESENTATION_CONTEXT ( 'NONE', 'WORKASPACE' ) );
#139 = APPROVAL_ROLE ( '' ) ;
#140 = EDGE_CURVE ( 'NONE', #54, #54, #192, .T. ) ;
#141 = APPROVAL_DATE_TIME ( #89, #35 ) ;
#142 = CIRCLE ( 'NONE', #9, 1.499999999999994893 ) ;
#143 = COORDINATED_UNIVERSAL_TIME_OFFSET ( 1, 0, .AHEAD. ) ;
#144 = EDGE_CURVE ( 'NONE', #13, #13, #126, .T. ) ;
#145 = FACE_OUTER_BOUND ( 'NONE', #47, .T. ) ;
#146 = ADVANCED_FACE ( 'NONE', ( #165, #28 ), #147, .T. ) ;
#147 = CYLINDRICAL_SURFACE ( 'NONE', #111, 0.9499999999999996225 ) ;
#148 = DIRECTION ( 'NONE',  ( -4.348522919579275296E-31, -1.000000000000000000, -1.227517819005651059E-16 ) ) ;
#149 = CARTESIAN_POINT ( 'NONE',  ( 1.658453635950487713E-14, -5.830709640276842159E-16, 4.749999999999999112 ) ) ;
#150 = ADVANCED_FACE ( 'NONE', ( #63 ), #93, .F. ) ;
#151 =( LENGTH_UNIT ( ) NAMED_UNIT ( * ) SI_UNIT ( .MILLI., .METRE. ) );
#152 = CARTESIAN_POINT ( 'NONE',  ( 1.658453635950487713E-14, -0.9500000000000005107, 4.749999999999999112 ) ) ;
#153 = AXIS2_PLACEMENT_3D ( 'NONE', #161, #76, #45 ) ;
#154 = MECHANICAL_CONTEXT ( 'NONE', #34, 'mechanical' ) ;
#155 = APPROVAL_ROLE ( '' ) ;
#156 = DIRECTION ( 'NONE',  ( -3.491481338843133355E-15, 1.224646799147353207E-16, -1.000000000000000000 ) ) ;
#157 = CARTESIAN_POINT ( 'NONE',  ( 1.326762908760390423E-13, 1.199999999999992406, 38.00000000000000000 ) ) ;
#158 = PRODUCT_DEFINITION_SHAPE ( 'NONE', 'NONE',  #59 ) ;
#159 = PERSON_AND_ORGANIZATION ( #44, #222 ) ;
#160 = DATE_AND_TIME ( #39, #72 ) ;
#161 = CARTESIAN_POINT ( 'NONE',  ( 1.658453635950488028E-14, 1.124819836996386911E-32, 4.750000000000000000 ) ) ;
#162 = EDGE_LOOP ( 'NONE', ( #200 ) ) ;
#163 = LOCAL_TIME ( 16, 36, 14.00000000000000000, #16 ) ;
#164 = ORIENTED_EDGE ( 'NONE', *, *, #75, .T. ) ;
#165 = FACE_OUTER_BOUND ( 'NONE', #186, .T. ) ;
#166 = EDGE_CURVE ( 'NONE', #69, #69, #81, .T. ) ;
#167 = APPROVAL_DATE_TIME ( #36, #172 ) ;
#168 = CARTESIAN_POINT ( 'NONE',  ( 1.658453635950487713E-14, -0.9500000000000005107, 4.749999999999999112 ) ) ;
#169 = AXIS2_PLACEMENT_3D ( 'NONE', #67, #203, #188 ) ;
#170 = CALENDAR_DATE ( 2021, 16, 11 ) ;
#171 = CALENDAR_DATE ( 2021, 16, 11 ) ;
#172 = APPROVAL ( #220, 'UNSPECIFIED' ) ;
#173 = CC_DESIGN_PERSON_AND_ORGANIZATION_ASSIGNMENT ( #103, #51, ( #59 ) ) ;
#174 = CALENDAR_DATE ( 2021, 16, 11 ) ;
#175 = LOCAL_TIME ( 16, 36, 14.00000000000000000, #143 ) ;
#176 = CARTESIAN_POINT ( 'NONE',  ( -6.413731847436034514E-31, 0.0000000000000000000, -1.836965810494968570E-16 ) ) ;
#177 = EDGE_CURVE ( 'NONE', #11, #11, #142, .T. ) ;
#178 = ADVANCED_BREP_SHAPE_REPRESENTATION ( '966096', ( #56, #129, #187 ), #138 ) ;
#179 = DIRECTION ( 'NONE',  ( 0.0000000000000000000, 1.000000000000000000, 0.0000000000000000000 ) ) ;
#180 = CARTESIAN_POINT ( 'NONE',  ( 1.326762908760390423E-13, -4.653657836759941941E-15, 38.00000000000000000 ) ) ;
#181 = DIRECTION ( 'NONE',  ( 4.275831445896958607E-31, 1.000000000000000000, 1.224646799147353207E-16 ) ) ;
#182 = EDGE_LOOP ( 'NONE', ( #197 ) ) ;
#183 = DIRECTION ( 'NONE',  ( 0.0000000000000000000, -1.000000000000000000, 0.0000000000000000000 ) ) ;
#184 = PLANE ( 'NONE',  #98 ) ;
#185 = APPLICATION_PROTOCOL_DEFINITION ( 'international standard', 'config_control_design', 1994, #34 ) ;
#186 = EDGE_LOOP ( 'NONE', ( #215 ) ) ;
#187 = AXIS2_PLACEMENT_3D ( 'NONE', #32, #101, #120 ) ;
#188 = DIRECTION ( 'NONE',  ( 0.0000000000000000000, 1.000000000000000000, 0.0000000000000000000 ) ) ;
#189 = PERSON_AND_ORGANIZATION ( #44, #222 ) ;
#190 = PERSON_AND_ORGANIZATION_ROLE ( 'design_supplier' ) ;
#191 = PERSON_AND_ORGANIZATION ( #44, #222 ) ;
#192 = CIRCLE ( 'NONE', #22, 0.9499999999999999556 ) ;
#193 = PERSON_AND_ORGANIZATION_ROLE ( 'creator' ) ;
#194 = EDGE_CURVE ( 'NONE', #10, #10, #48, .T. ) ;
#195 = ORIENTED_EDGE ( 'NONE', *, *, #140, .T. ) ;
#196 = FACE_OUTER_BOUND ( 'NONE', #31, .T. ) ;
#197 = ORIENTED_EDGE ( 'NONE', *, *, #140, .F. ) ;
#198 = AXIS2_PLACEMENT_3D ( 'NONE', #21, #6, #23 ) ;
#199 = DIRECTION ( 'NONE',  ( -4.285855558155651528E-31, -1.000000000000000000, -1.227517819005651059E-16 ) ) ;
#200 = ORIENTED_EDGE ( 'NONE', *, *, #177, .F. ) ;
#201 = DIRECTION ( 'NONE',  ( -3.491481338843133355E-15, 1.224646799147353207E-16, -1.000000000000000000 ) ) ;
#202 = PERSON_AND_ORGANIZATION ( #44, #222 ) ;
#203 = DIRECTION ( 'NONE',  ( -3.491481338843133355E-15, 1.224646799147353207E-16, -1.000000000000000000 ) ) ;
#204 = CC_DESIGN_PERSON_AND_ORGANIZATION_ASSIGNMENT ( #202, #71, ( #127 ) ) ;
#205 = AXIS2_PLACEMENT_3D ( 'NONE', #115, #95, #4 ) ;
#206 = UNCERTAINTY_MEASURE_WITH_UNIT (LENGTH_MEASURE( 1.000000000000000082E-05 ), #151, 'distance_accuracy_value', 'NONE');
#207 = CIRCLE ( 'NONE', #205, 0.9499999999999999556 ) ;
#208 = CARTESIAN_POINT ( 'NONE',  ( 1.326762908760390423E-13, -4.653657836759941941E-15, 38.00000000000000000 ) ) ;
#209 = DIRECTION ( 'NONE',  ( 0.0000000000000000000, 1.000000000000000000, 0.0000000000000000000 ) ) ;
#210 = PLANE ( 'NONE',  #136 ) ;
#211 = CC_DESIGN_PERSON_AND_ORGANIZATION_ASSIGNMENT ( #191, #193, ( #87 ) ) ;
#212 = APPROVAL_PERSON_ORGANIZATION ( #189, #172, #139 ) ;
#213 = EDGE_LOOP ( 'NONE', ( #25 ) ) ;
#214 = DIRECTION ( 'NONE',  ( -4.285855558155653280E-31, -1.000000000000000000, -1.227517819005651552E-16 ) ) ;
#215 = ORIENTED_EDGE ( 'NONE', *, *, #144, .T. ) ;
#216 = PERSON_AND_ORGANIZATION ( #44, #222 ) ;
#217 = VERTEX_POINT ( 'NONE', #152 ) ;
#218 = CLOSED_SHELL ( 'NONE', ( #41, #104, #107, #68, #150 ) ) ;
#219 = CC_DESIGN_APPROVAL ( #5, ( #106 ) ) ;
#220 = APPROVAL_STATUS ( 'not_yet_approved' ) ;
#221 = AXIS2_PLACEMENT_3D ( 'NONE', #124, #156, #15 ) ;
#222 = ORGANIZATION ( 'UNSPECIFIED', 'UNSPECIFIED', '' ) ;
#223 = COORDINATED_UNIVERSAL_TIME_OFFSET ( 1, 0, .AHEAD. ) ;
ENDSEC;
END-ISO-10303-21;
