ISO-10303-21;
HEADER;
FILE_DESCRIPTION (( 'STEP AP203' ),
    '1' );
FILE_NAME ('966095.step',
    '2021-11-16T15:36:14',
    ( '' ),
    ( '' ),
    'SwSTEP 2.0',
    'SolidWorks 2019',
    '' );
FILE_SCHEMA (( 'CONFIG_CONTROL_DESIGN' ));
ENDSEC;

DATA;
#1 = EDGE_LOOP ( 'NONE', ( #207 ) ) ;
#2 = ORIENTED_EDGE ( 'NONE', *, *, #18, .F. ) ;
#3 = DIRECTION ( 'NONE',  ( 3.491481338843133355E-15, -1.227517819005651059E-16, 1.000000000000000000 ) ) ;
#4 = CARTESIAN_POINT ( 'NONE',  ( 2.632485044422662139E-14, -3.731331124789349905E-16, 7.539736830714121929 ) ) ;
#5 = CARTESIAN_POINT ( 'NONE',  ( 1.571166602479410010E-14, 1.124819836996386911E-32, 4.500000000000000000 ) ) ;
#6 = DIRECTION ( 'NONE',  ( -4.275831445896958607E-31, -1.000000000000000000, -1.224646799147353207E-16 ) ) ;
#7 = PERSON_AND_ORGANIZATION ( #169, #128 ) ;
#8 = CONICAL_SURFACE ( 'NONE', #46, 1.199999999999996847, 0.7853981633974453924 ) ;
#9 = ADVANCED_FACE ( 'NONE', ( #84 ), #12, .F. ) ;
#10 = DATE_AND_TIME ( #47, #143 ) ;
#11 = PERSON_AND_ORGANIZATION ( #169, #128 ) ;
#12 = PLANE ( 'NONE',  #126 ) ;
#13 = APPROVAL_PERSON_ORGANIZATION ( #203, #134, #218 ) ;
#14 = EDGE_LOOP ( 'NONE', ( #70 ) ) ;
#15 = MANIFOLD_SOLID_BREP ( 'Corps-Déplacer/Copier1[2]', #17 ) ;
#16 = EDGE_LOOP ( 'NONE', ( #152 ) ) ;
#17 = CLOSED_SHELL ( 'NONE', ( #68, #154, #189 ) ) ;
#18 = EDGE_CURVE ( 'NONE', #23, #23, #66, .T. ) ;
#19 = FACE_OUTER_BOUND ( 'NONE', #192, .T. ) ;
#20 = CARTESIAN_POINT ( 'NONE',  ( -3.857270002340084974E-31, -8.987882689079817561E-33, -1.104766037105085065E-16 ) ) ;
#21 = FACE_OUTER_BOUND ( 'NONE', #170, .T. ) ;
#22 = DIRECTION ( 'NONE',  ( -3.491481338843133355E-15, 1.224646799147353207E-16, -1.000000000000000000 ) ) ;
#23 = VERTEX_POINT ( 'NONE', #198 ) ;
#24 = PERSON_AND_ORGANIZATION_ROLE ( 'design_supplier' ) ;
#25 = TOROIDAL_SURFACE ( 'NONE', #57, 8.899999999999998579, 8.000000000000000000 ) ;
#26 = DIRECTION ( 'NONE',  ( 0.0000000000000000000, 0.0000000000000000000, 1.000000000000000000 ) ) ;
#27 = EDGE_CURVE ( 'NONE', #201, #201, #222, .T. ) ;
#28 = CALENDAR_DATE ( 2021, 16, 11 ) ;
#29 = MECHANICAL_CONTEXT ( 'NONE', #104, 'mechanical' ) ;
#30 = CIRCLE ( 'NONE', #60, 0.9000000000000003553 ) ;
#31 = ORIENTED_EDGE ( 'NONE', *, *, #53, .F. ) ;
#32 = EDGE_LOOP ( 'NONE', ( #67 ) ) ;
#33 = DIRECTION ( 'NONE',  ( -3.491481338843133355E-15, 1.224646799147353207E-16, -1.000000000000000000 ) ) ;
#34 = ADVANCED_BREP_SHAPE_REPRESENTATION ( '966095', ( #92, #15, #48 ), #133 ) ;
#35 = VERTEX_POINT ( 'NONE', #105 ) ;
#36 = FACE_OUTER_BOUND ( 'NONE', #135, .T. ) ;
#37 = LOCAL_TIME ( 16, 36, 14.00000000000000000, #186 ) ;
#38 = UNCERTAINTY_MEASURE_WITH_UNIT (LENGTH_MEASURE( 1.000000000000000082E-05 ), #220, 'distance_accuracy_value', 'NONE');
#39 = CARTESIAN_POINT ( 'NONE',  ( -6.413731847436034514E-31, 0.0000000000000000000, -1.836965810494968570E-16 ) ) ;
#40 = CC_DESIGN_DATE_AND_TIME_ASSIGNMENT ( #43, #219, ( #164 ) ) ;
#41 = FACE_BOUND ( 'NONE', #156, .T. ) ;
#42 = CARTESIAN_POINT ( 'NONE',  ( 1.571166602479409694E-14, -5.523830185525428531E-16, 4.499999999999999112 ) ) ;
#43 = DATE_AND_TIME ( #205, #114 ) ;
#44 = PRODUCT ( '966095', '966095', '', ( #29 ) ) ;
#45 = DATE_AND_TIME ( #111, #148 ) ;
#46 = AXIS2_PLACEMENT_3D ( 'NONE', #162, #121, #76 ) ;
#47 = CALENDAR_DATE ( 2021, 16, 11 ) ;
#48 = AXIS2_PLACEMENT_3D ( 'NONE', #64, #26, #217 ) ;
#49 = PERSON_AND_ORGANIZATION ( #169, #128 ) ;
#50 = AXIS2_PLACEMENT_3D ( 'NONE', #140, #138, #6 ) ;
#51 = CC_DESIGN_PERSON_AND_ORGANIZATION_ASSIGNMENT ( #182, #151, ( #175 ) ) ;
#52 = DATE_AND_TIME ( #102, #173 ) ;
#53 = EDGE_CURVE ( 'NONE', #77, #77, #147, .T. ) ;
#54 = EDGE_LOOP ( 'NONE', ( #71 ) ) ;
#55 = DIRECTION ( 'NONE',  ( -4.285855558155654155E-31, -1.000000000000000000, -1.227517819005650812E-16 ) ) ;
#56 = CARTESIAN_POINT ( 'NONE',  ( 1.316288464743861212E-13, -4.616918432785521081E-15, 37.69999999999999574 ) ) ;
#57 = AXIS2_PLACEMENT_3D ( 'NONE', #199, #139, #109 ) ;
#58 = CARTESIAN_POINT ( 'NONE',  ( 0.0000000000000000000, 0.0000000000000000000, 0.0000000000000000000 ) ) ;
#59 = DIRECTION ( 'NONE',  ( -3.491481338843133355E-15, 1.227517819005651059E-16, -1.000000000000000000 ) ) ;
#60 = AXIS2_PLACEMENT_3D ( 'NONE', #42, #3, #144 ) ;
#61 = APPROVAL_STATUS ( 'not_yet_approved' ) ;
#62 = DATE_AND_TIME ( #28, #37 ) ;
#63 = PERSON_AND_ORGANIZATION_ROLE ( 'creator' ) ;
#64 = CARTESIAN_POINT ( 'NONE',  ( 0.0000000000000000000, 0.0000000000000000000, 0.0000000000000000000 ) ) ;
#65 = PRODUCT_DEFINITION_SHAPE ( 'NONE', 'NONE',  #164 ) ;
#66 = CIRCLE ( 'NONE', #165, 1.199999999999996847 ) ;
#67 = ORIENTED_EDGE ( 'NONE', *, *, #212, .T. ) ;
#68 = ADVANCED_FACE ( 'NONE', ( #73 ), #178, .T. ) ;
#69 = EDGE_LOOP ( 'NONE', ( #2 ) ) ;
#70 = ORIENTED_EDGE ( 'NONE', *, *, #90, .T. ) ;
#71 = ORIENTED_EDGE ( 'NONE', *, *, #149, .F. ) ;
#72 = FACE_OUTER_BOUND ( 'NONE', #190, .T. ) ;
#73 = FACE_OUTER_BOUND ( 'NONE', #32, .T. ) ;
#74 = FACE_OUTER_BOUND ( 'NONE', #1, .T. ) ;
#75 = ADVANCED_FACE ( 'NONE', ( #19, #41 ), #8, .T. ) ;
#76 = DIRECTION ( 'NONE',  ( 0.0000000000000000000, 1.000000000000000000, 0.0000000000000000000 ) ) ;
#77 = VERTEX_POINT ( 'NONE', #120 ) ;
#78 = AXIS2_PLACEMENT_3D ( 'NONE', #4, #59, #211 ) ;
#79 = COORDINATED_UNIVERSAL_TIME_OFFSET ( 1, 0, .AHEAD. ) ;
#80 = DATE_TIME_ROLE ( 'classification_date' ) ;
#81 = PERSON_AND_ORGANIZATION_ROLE ( 'design_owner' ) ;
#82 = ORIENTED_EDGE ( 'NONE', *, *, #27, .F. ) ;
#83 = SHAPE_DEFINITION_REPRESENTATION ( #65, #34 ) ;
#84 = FACE_OUTER_BOUND ( 'NONE', #69, .T. ) ;
#85 = ORIENTED_EDGE ( 'NONE', *, *, #18, .T. ) ;
#86 = AXIS2_PLACEMENT_3D ( 'NONE', #39, #125, #55 ) ;
#87 = CC_DESIGN_APPROVAL ( #177, ( #175 ) ) ;
#88 = DIRECTION ( 'NONE',  ( -4.285855558155653280E-31, -1.000000000000000000, -1.227517819005651059E-16 ) ) ;
#89 = DIRECTION ( 'NONE',  ( -4.275831445896958607E-31, -1.000000000000000000, -1.224646799147353207E-16 ) ) ;
#90 = EDGE_CURVE ( 'NONE', #94, #94, #30, .T. ) ;
#91 = PLANE ( 'NONE',  #200 ) ;
#92 = MANIFOLD_SOLID_BREP ( 'Corps-Déplacer/Copier1[1]', #116 ) ;
#93 = DIRECTION ( 'NONE',  ( 4.275831445896958607E-31, 1.000000000000000000, 1.224646799147353207E-16 ) ) ;
#94 = VERTEX_POINT ( 'NONE', #193 ) ;
#95 = APPROVAL_ROLE ( '' ) ;
#96 =( NAMED_UNIT ( * ) PLANE_ANGLE_UNIT ( ) SI_UNIT ( $, .RADIAN. ) );
#97 = APPLICATION_CONTEXT ( 'configuration controlled 3d designs of mechanical parts and assemblies' ) ;
#98 = APPROVAL_ROLE ( '' ) ;
#99 = AXIS2_PLACEMENT_3D ( 'NONE', #58, #22, #93 ) ;
#100 = CC_DESIGN_APPROVAL ( #195, ( #164 ) ) ;
#101 = EDGE_LOOP ( 'NONE', ( #223 ) ) ;
#102 = CALENDAR_DATE ( 2021, 16, 11 ) ;
#103 = CC_DESIGN_PERSON_AND_ORGANIZATION_ASSIGNMENT ( #131, #24, ( #191 ) ) ;
#104 = APPLICATION_CONTEXT ( 'configuration controlled 3d designs of mechanical parts and assemblies' ) ;
#105 = CARTESIAN_POINT ( 'NONE',  ( 2.632485044422662139E-14, 1.499999999999994449, 7.539736830714121929 ) ) ;
#106 = ADVANCED_FACE ( 'NONE', ( #214, #72 ), #25, .F. ) ;
#107 = DIRECTION ( 'NONE',  ( 3.491481338843133355E-15, -1.224646799147353207E-16, 1.000000000000000000 ) ) ;
#108 = DIRECTION ( 'NONE',  ( 3.491481338843133355E-15, -1.224646799147353207E-16, 1.000000000000000000 ) ) ;
#109 = DIRECTION ( 'NONE',  ( -4.348708325974019258E-31, -1.000000000000000000, -1.227517819005651059E-16 ) ) ;
#110 = DIRECTION ( 'NONE',  ( 0.0000000000000000000, -1.000000000000000000, 0.0000000000000000000 ) ) ;
#111 = CALENDAR_DATE ( 2021, 16, 11 ) ;
#112 = PRODUCT_RELATED_PRODUCT_CATEGORY ( 'detail', '', ( #44 ) ) ;
#113 = AXIS2_PLACEMENT_3D ( 'NONE', #5, #108, #89 ) ;
#114 = LOCAL_TIME ( 16, 36, 14.00000000000000000, #202 ) ;
#115 = CARTESIAN_POINT ( 'NONE',  ( 1.571166602479409694E-14, -0.9000000000000007994, 4.499999999999999112 ) ) ;
#116 = CLOSED_SHELL ( 'NONE', ( #197, #75, #9, #106, #172 ) ) ;
#117 = CARTESIAN_POINT ( 'NONE',  ( 1.326762908760390423E-13, -4.653657836759941941E-15, 38.00000000000000000 ) ) ;
#118 = CC_DESIGN_PERSON_AND_ORGANIZATION_ASSIGNMENT ( #167, #63, ( #191 ) ) ;
#119 = ORIENTED_EDGE ( 'NONE', *, *, #90, .F. ) ;
#120 = CARTESIAN_POINT ( 'NONE',  ( 1.316288464743861212E-13, 1.499999999999992228, 37.69999999999999574 ) ) ;
#121 = DIRECTION ( 'NONE',  ( -3.491481338843133355E-15, 1.224646799147353207E-16, -1.000000000000000000 ) ) ;
#122 = AXIS2_PLACEMENT_3D ( 'NONE', #20, #215, #88 ) ;
#123 = CARTESIAN_POINT ( 'NONE',  ( 1.571166602479409694E-14, -5.523830185525428531E-16, 4.499999999999999112 ) ) ;
#124 = CARTESIAN_POINT ( 'NONE',  ( -4.275811853558651348E-31, 1.499752910594655314E-32, -1.224641187678636516E-16 ) ) ;
#125 = DIRECTION ( 'NONE',  ( 3.491481338843133355E-15, -1.227517819005651059E-16, 1.000000000000000000 ) ) ;
#126 = AXIS2_PLACEMENT_3D ( 'NONE', #136, #33, #132 ) ;
#127 = APPROVAL_DATE_TIME ( #62, #195 ) ;
#128 = ORGANIZATION ( 'UNSPECIFIED', 'UNSPECIFIED', '' ) ;
#129 = PERSON_AND_ORGANIZATION_ROLE ( 'creator' ) ;
#130 = SECURITY_CLASSIFICATION_LEVEL ( 'unclassified' ) ;
#131 = PERSON_AND_ORGANIZATION ( #169, #128 ) ;
#132 = DIRECTION ( 'NONE',  ( 4.275831445896958607E-31, 1.000000000000000000, 1.224646799147353207E-16 ) ) ;
#133 =( GEOMETRIC_REPRESENTATION_CONTEXT ( 3 ) GLOBAL_UNCERTAINTY_ASSIGNED_CONTEXT ( ( #38 ) ) GLOBAL_UNIT_ASSIGNED_CONTEXT ( ( #220, #96, #150 ) ) REPRESENTATION_CONTEXT ( 'NONE', 'WORKASPACE' ) );
#134 = APPROVAL ( #183, 'UNSPECIFIED' ) ;
#135 = EDGE_LOOP ( 'NONE', ( #82 ) ) ;
#136 = CARTESIAN_POINT ( 'NONE',  ( 1.326762908760390423E-13, 8.998558695971053960E-33, 38.00000000000000000 ) ) ;
#137 = APPROVAL_PERSON_ORGANIZATION ( #216, #195, #95 ) ;
#138 = DIRECTION ( 'NONE',  ( 3.491481338843133355E-15, -1.224646799147353207E-16, 1.000000000000000000 ) ) ;
#139 = DIRECTION ( 'NONE',  ( 3.491481338843133355E-15, -1.227517819005651059E-16, 1.000000000000000000 ) ) ;
#140 = CARTESIAN_POINT ( 'NONE',  ( 1.571166602479410010E-14, 1.124819836996386911E-32, 4.500000000000000000 ) ) ;
#141 = AXIS2_PLACEMENT_3D ( 'NONE', #56, #174, #161 ) ;
#142 = CC_DESIGN_PERSON_AND_ORGANIZATION_ASSIGNMENT ( #11, #129, ( #164 ) ) ;
#143 = LOCAL_TIME ( 16, 36, 14.00000000000000000, #204 ) ;
#144 = DIRECTION ( 'NONE',  ( 0.0000000000000000000, -1.000000000000000000, 0.0000000000000000000 ) ) ;
#145 = DIRECTION ( 'NONE',  ( 0.0000000000000000000, 1.000000000000000000, 0.0000000000000000000 ) ) ;
#146 = APPLICATION_PROTOCOL_DEFINITION ( 'international standard', 'config_control_design', 1994, #97 ) ;
#147 = CIRCLE ( 'NONE', #141, 1.499999999999996669 ) ;
#148 = LOCAL_TIME ( 16, 36, 14.00000000000000000, #79 ) ;
#149 = EDGE_CURVE ( 'NONE', #35, #35, #184, .T. ) ;
#150 =( NAMED_UNIT ( * ) SI_UNIT ( $, .STERADIAN. ) SOLID_ANGLE_UNIT ( ) );
#151 = PERSON_AND_ORGANIZATION_ROLE ( 'classification_officer' ) ;
#152 = ORIENTED_EDGE ( 'NONE', *, *, #53, .T. ) ;
#153 = CC_DESIGN_DATE_AND_TIME_ASSIGNMENT ( #10, #80, ( #175 ) ) ;
#154 = ADVANCED_FACE ( 'NONE', ( #74, #158 ), #160, .T. ) ;
#155 = CIRCLE ( 'NONE', #187, 0.9000000000000003553 ) ;
#156 = EDGE_LOOP ( 'NONE', ( #85 ) ) ;
#157 = CC_DESIGN_SECURITY_CLASSIFICATION ( #175, ( #191 ) ) ;
#158 = FACE_OUTER_BOUND ( 'NONE', #101, .T. ) ;
#159 = FACE_OUTER_BOUND ( 'NONE', #54, .T. ) ;
#160 = CYLINDRICAL_SURFACE ( 'NONE', #86, 0.8999999999999998002 ) ;
#161 = DIRECTION ( 'NONE',  ( 0.0000000000000000000, 1.000000000000000000, 0.0000000000000000000 ) ) ;
#162 = CARTESIAN_POINT ( 'NONE',  ( 1.326762908760390423E-13, -4.653657836759941941E-15, 38.00000000000000000 ) ) ;
#163 = APPLICATION_PROTOCOL_DEFINITION ( 'international standard', 'config_control_design', 1994, #104 ) ;
#164 = PRODUCT_DEFINITION ( 'UNKNOWN', '', #191, #194 ) ;
#165 = AXIS2_PLACEMENT_3D ( 'NONE', #117, #188, #145 ) ;
#166 = VERTEX_POINT ( 'NONE', #115 ) ;
#167 = PERSON_AND_ORGANIZATION ( #169, #128 ) ;
#168 = COORDINATED_UNIVERSAL_TIME_OFFSET ( 1, 0, .AHEAD. ) ;
#169 = PERSON ( 'UNSPECIFIED', 'UNSPECIFIED', 'UNSPECIFIED', ('UNSPECIFIED'), ('UNSPECIFIED'), ('UNSPECIFIED') ) ;
#170 = EDGE_LOOP ( 'NONE', ( #119 ) ) ;
#171 = APPROVAL_DATE_TIME ( #52, #177 ) ;
#172 = ADVANCED_FACE ( 'NONE', ( #21 ), #196, .F. ) ;
#173 = LOCAL_TIME ( 16, 36, 14.00000000000000000, #168 ) ;
#174 = DIRECTION ( 'NONE',  ( -3.491481338843133355E-15, 1.224646799147353207E-16, -1.000000000000000000 ) ) ;
#175 = SECURITY_CLASSIFICATION ( '', '', #130 ) ;
#176 = DIRECTION ( 'NONE',  ( -4.275831445896958607E-31, -1.000000000000000000, -1.224646799147353207E-16 ) ) ;
#177 = APPROVAL ( #185, 'UNSPECIFIED' ) ;
#178 = PLANE ( 'NONE',  #113 ) ;
#179 = FACE_OUTER_BOUND ( 'NONE', #16, .T. ) ;
#180 = APPROVAL_PERSON_ORGANIZATION ( #49, #177, #98 ) ;
#181 = CARTESIAN_POINT ( 'NONE',  ( -7.714540004680169948E-31, -0.8999999999999993561, -2.209532074210170131E-16 ) ) ;
#182 = PERSON_AND_ORGANIZATION ( #169, #128 ) ;
#183 = APPROVAL_STATUS ( 'not_yet_approved' ) ;
#184 = CIRCLE ( 'NONE', #78, 1.499999999999994893 ) ;
#185 = APPROVAL_STATUS ( 'not_yet_approved' ) ;
#186 = COORDINATED_UNIVERSAL_TIME_OFFSET ( 1, 0, .AHEAD. ) ;
#187 = AXIS2_PLACEMENT_3D ( 'NONE', #123, #210, #110 ) ;
#188 = DIRECTION ( 'NONE',  ( -3.491481338843133355E-15, 1.224646799147353207E-16, -1.000000000000000000 ) ) ;
#189 = ADVANCED_FACE ( 'NONE', ( #36 ), #91, .F. ) ;
#190 = EDGE_LOOP ( 'NONE', ( #209 ) ) ;
#191 = PRODUCT_DEFINITION_FORMATION_WITH_SPECIFIED_SOURCE ( 'ANY', '', #44, .NOT_KNOWN. ) ;
#192 = EDGE_LOOP ( 'NONE', ( #31 ) ) ;
#193 = CARTESIAN_POINT ( 'NONE',  ( 1.571166602479409694E-14, -0.9000000000000007994, 4.499999999999999112 ) ) ;
#194 = DESIGN_CONTEXT ( 'detailed design', #97, 'design' ) ;
#195 = APPROVAL ( #61, 'UNSPECIFIED' ) ;
#196 = PLANE ( 'NONE',  #50 ) ;
#197 = ADVANCED_FACE ( 'NONE', ( #179, #159 ), #213, .T. ) ;
#198 = CARTESIAN_POINT ( 'NONE',  ( 1.326762908760390423E-13, 1.199999999999992406, 38.00000000000000000 ) ) ;
#199 = CARTESIAN_POINT ( 'NONE',  ( 1.571166602479409694E-14, 0.0000000000000000000, 4.499999999999999112 ) ) ;
#200 = AXIS2_PLACEMENT_3D ( 'NONE', #124, #107, #176 ) ;
#201 = VERTEX_POINT ( 'NONE', #181 ) ;
#202 = COORDINATED_UNIVERSAL_TIME_OFFSET ( 1, 0, .AHEAD. ) ;
#203 = PERSON_AND_ORGANIZATION ( #169, #128 ) ;
#204 = COORDINATED_UNIVERSAL_TIME_OFFSET ( 1, 0, .AHEAD. ) ;
#205 = CALENDAR_DATE ( 2021, 16, 11 ) ;
#206 = APPROVAL_DATE_TIME ( #45, #134 ) ;
#207 = ORIENTED_EDGE ( 'NONE', *, *, #27, .T. ) ;
#208 = CC_DESIGN_PERSON_AND_ORGANIZATION_ASSIGNMENT ( #7, #81, ( #44 ) ) ;
#209 = ORIENTED_EDGE ( 'NONE', *, *, #149, .T. ) ;
#210 = DIRECTION ( 'NONE',  ( 3.491481338843133355E-15, -1.227517819005651059E-16, 1.000000000000000000 ) ) ;
#211 = DIRECTION ( 'NONE',  ( 0.0000000000000000000, 1.000000000000000000, 0.0000000000000000000 ) ) ;
#212 = EDGE_CURVE ( 'NONE', #166, #166, #155, .T. ) ;
#213 = CYLINDRICAL_SURFACE ( 'NONE', #99, 1.499999999999994893 ) ;
#214 = FACE_OUTER_BOUND ( 'NONE', #14, .T. ) ;
#215 = DIRECTION ( 'NONE',  ( 3.491481338843133355E-15, -1.227517819005651059E-16, 1.000000000000000000 ) ) ;
#216 = PERSON_AND_ORGANIZATION ( #169, #128 ) ;
#217 = DIRECTION ( 'NONE',  ( 1.000000000000000000, 0.0000000000000000000, 0.0000000000000000000 ) ) ;
#218 = APPROVAL_ROLE ( '' ) ;
#219 = DATE_TIME_ROLE ( 'creation_date' ) ;
#220 =( LENGTH_UNIT ( ) NAMED_UNIT ( * ) SI_UNIT ( .MILLI., .METRE. ) );
#221 = CC_DESIGN_APPROVAL ( #134, ( #191 ) ) ;
#222 = CIRCLE ( 'NONE', #122, 0.8999999999999993561 ) ;
#223 = ORIENTED_EDGE ( 'NONE', *, *, #212, .F. ) ;
ENDSEC;
END-ISO-10303-21;
