ISO-10303-21;
HEADER;
FILE_DESCRIPTION (( 'STEP AP203' ),
    '1' );
FILE_NAME ('966094.step',
    '2021-11-16T15:36:13',
    ( '' ),
    ( '' ),
    'SwSTEP 2.0',
    'SolidWorks 2019',
    '' );
FILE_SCHEMA (( 'CONFIG_CONTROL_DESIGN' ));
ENDSEC;

DATA;
#1 = CC_DESIGN_DATE_AND_TIME_ASSIGNMENT ( #152, #169, ( #166 ) ) ;
#2 = ORIENTED_EDGE ( 'NONE', *, *, #47, .F. ) ;
#3 = DIRECTION ( 'NONE',  ( 0.0000000000000000000, 1.000000000000000000, 0.0000000000000000000 ) ) ;
#4 = PERSON_AND_ORGANIZATION_ROLE ( 'design_owner' ) ;
#5 = CARTESIAN_POINT ( 'NONE',  ( 1.483879569008331676E-14, 1.124819836996387048E-32, 4.250000000000000000 ) ) ;
#6 = DIRECTION ( 'NONE',  ( 1.000000000000000000, 0.0000000000000000000, 0.0000000000000000000 ) ) ;
#7 = DIRECTION ( 'NONE',  ( 3.491481338843133355E-15, -1.227517819005651059E-16, 1.000000000000000000 ) ) ;
#8 = DATE_AND_TIME ( #79, #221 ) ;
#9 = CARTESIAN_POINT ( 'NONE',  ( 1.326762908760390423E-13, 1.199999999999992406, 38.00000000000000000 ) ) ;
#10 = APPROVAL_ROLE ( '' ) ;
#11 = EDGE_CURVE ( 'NONE', #100, #100, #136, .T. ) ;
#12 = CYLINDRICAL_SURFACE ( 'NONE', #126, 1.499999999999994893 ) ;
#13 = APPLICATION_PROTOCOL_DEFINITION ( 'international standard', 'config_control_design', 1994, #137 ) ;
#14 = CC_DESIGN_APPROVAL ( #170, ( #51 ) ) ;
#15 = PRODUCT_RELATED_PRODUCT_CATEGORY ( 'detail', '', ( #24 ) ) ;
#16 = CLOSED_SHELL ( 'NONE', ( #188, #85, #206 ) ) ;
#17 = CC_DESIGN_SECURITY_CLASSIFICATION ( #138, ( #51 ) ) ;
#18 = EDGE_LOOP ( 'NONE', ( #103 ) ) ;
#19 = PRODUCT_DEFINITION_SHAPE ( 'NONE', 'NONE',  #166 ) ;
#20 = VERTEX_POINT ( 'NONE', #65 ) ;
#21 = CC_DESIGN_DATE_AND_TIME_ASSIGNMENT ( #8, #27, ( #138 ) ) ;
#22 = CARTESIAN_POINT ( 'NONE',  ( 1.483879569008331360E-14, -5.216950730774016876E-16, 4.249999999999999112 ) ) ;
#23 = CALENDAR_DATE ( 2021, 16, 11 ) ;
#24 = PRODUCT ( '966094', '966094', '', ( #72 ) ) ;
#25 = DIRECTION ( 'NONE',  ( 0.0000000000000000000, 1.000000000000000000, 0.0000000000000000000 ) ) ;
#26 = DIRECTION ( 'NONE',  ( -4.275831445896958607E-31, -1.000000000000000000, -1.224646799147353207E-16 ) ) ;
#27 = DATE_TIME_ROLE ( 'classification_date' ) ;
#28 = DIRECTION ( 'NONE',  ( -3.491481338843133355E-15, 1.224646799147353207E-16, -1.000000000000000000 ) ) ;
#29 = ADVANCED_FACE ( 'NONE', ( #204 ), #50, .F. ) ;
#30 = CARTESIAN_POINT ( 'NONE',  ( 2.586740097140782054E-14, 1.499999999999994449, 7.408718094417402256 ) ) ;
#31 = AXIS2_PLACEMENT_3D ( 'NONE', #36, #179, #25 ) ;
#32 = ADVANCED_FACE ( 'NONE', ( #168, #53 ), #12, .T. ) ;
#33 = CARTESIAN_POINT ( 'NONE',  ( 1.326762908760390423E-13, -4.653657836759941941E-15, 38.00000000000000000 ) ) ;
#34 = APPLICATION_PROTOCOL_DEFINITION ( 'international standard', 'config_control_design', 1994, #61 ) ;
#35 = CARTESIAN_POINT ( 'NONE',  ( 0.0000000000000000000, 0.0000000000000000000, 0.0000000000000000000 ) ) ;
#36 = CARTESIAN_POINT ( 'NONE',  ( 1.316288464743861212E-13, -4.616918432785521081E-15, 37.69999999999999574 ) ) ;
#37 = APPROVAL_DATE_TIME ( #180, #123 ) ;
#38 = PLANE ( 'NONE',  #127 ) ;
#39 = PERSON_AND_ORGANIZATION_ROLE ( 'creator' ) ;
#40 = AXIS2_PLACEMENT_3D ( 'NONE', #89, #125, #192 ) ;
#41 = FACE_OUTER_BOUND ( 'NONE', #104, .T. ) ;
#42 = CC_DESIGN_PERSON_AND_ORGANIZATION_ASSIGNMENT ( #215, #161, ( #166 ) ) ;
#43 = DATE_AND_TIME ( #130, #171 ) ;
#44 = CARTESIAN_POINT ( 'NONE',  ( -7.285954448864607773E-31, -0.8499999999999996447, -2.086780292309605863E-16 ) ) ;
#45 = SHAPE_DEFINITION_REPRESENTATION ( #19, #46 ) ;
#46 = ADVANCED_BREP_SHAPE_REPRESENTATION ( '966094', ( #219, #150, #69 ), #48 ) ;
#47 = EDGE_CURVE ( 'NONE', #78, #78, #182, .T. ) ;
#48 =( GEOMETRIC_REPRESENTATION_CONTEXT ( 3 ) GLOBAL_UNCERTAINTY_ASSIGNED_CONTEXT ( ( #193 ) ) GLOBAL_UNIT_ASSIGNED_CONTEXT ( ( #106, #88, #111 ) ) REPRESENTATION_CONTEXT ( 'NONE', 'WORKASPACE' ) );
#49 = ORIENTED_EDGE ( 'NONE', *, *, #47, .T. ) ;
#50 = PLANE ( 'NONE',  #40 ) ;
#51 = PRODUCT_DEFINITION_FORMATION_WITH_SPECIFIED_SOURCE ( 'ANY', '', #24, .NOT_KNOWN. ) ;
#52 = EDGE_LOOP ( 'NONE', ( #207 ) ) ;
#53 = FACE_OUTER_BOUND ( 'NONE', #18, .T. ) ;
#54 = AXIS2_PLACEMENT_3D ( 'NONE', #22, #194, #94 ) ;
#55 = DIRECTION ( 'NONE',  ( -4.285855558155653280E-31, -1.000000000000000000, -1.227517819005651059E-16 ) ) ;
#56 = DIRECTION ( 'NONE',  ( -3.491481338843133355E-15, 1.227517819005651059E-16, -1.000000000000000000 ) ) ;
#57 = CARTESIAN_POINT ( 'NONE',  ( 0.0000000000000000000, 0.0000000000000000000, 0.0000000000000000000 ) ) ;
#58 = CARTESIAN_POINT ( 'NONE',  ( 1.483879569008331676E-14, 1.124819836996387048E-32, 4.250000000000000000 ) ) ;
#59 = PERSON_AND_ORGANIZATION ( #186, #84 ) ;
#60 = PERSON_AND_ORGANIZATION ( #186, #84 ) ;
#61 = APPLICATION_CONTEXT ( 'configuration controlled 3d designs of mechanical parts and assemblies' ) ;
#62 = ADVANCED_FACE ( 'NONE', ( #177, #98 ), #189, .F. ) ;
#63 = APPROVAL ( #77, 'UNSPECIFIED' ) ;
#64 = EDGE_LOOP ( 'NONE', ( #49 ) ) ;
#65 = CARTESIAN_POINT ( 'NONE',  ( 1.316288464743861212E-13, 1.499999999999992228, 37.69999999999999574 ) ) ;
#66 = DIRECTION ( 'NONE',  ( 0.0000000000000000000, 1.000000000000000000, 0.0000000000000000000 ) ) ;
#67 = CIRCLE ( 'NONE', #122, 0.8500000000000006439 ) ;
#68 = LOCAL_TIME ( 16, 36, 13.00000000000000000, #82 ) ;
#69 = AXIS2_PLACEMENT_3D ( 'NONE', #57, #213, #6 ) ;
#70 = EDGE_CURVE ( 'NONE', #199, #199, #190, .T. ) ;
#71 = DIRECTION ( 'NONE',  ( 3.491481338843133355E-15, -1.227517819005651059E-16, 1.000000000000000000 ) ) ;
#72 = MECHANICAL_CONTEXT ( 'NONE', #61, 'mechanical' ) ;
#73 = DIRECTION ( 'NONE',  ( 3.491481338843133355E-15, -1.224646799147353207E-16, 1.000000000000000000 ) ) ;
#74 = CC_DESIGN_PERSON_AND_ORGANIZATION_ASSIGNMENT ( #148, #183, ( #138 ) ) ;
#75 = PERSON_AND_ORGANIZATION ( #186, #84 ) ;
#76 = DIRECTION ( 'NONE',  ( -4.275831445896958607E-31, -1.000000000000000000, -1.224646799147353207E-16 ) ) ;
#77 = APPROVAL_STATUS ( 'not_yet_approved' ) ;
#78 = VERTEX_POINT ( 'NONE', #133 ) ;
#79 = CALENDAR_DATE ( 2021, 16, 11 ) ;
#80 = DIRECTION ( 'NONE',  ( 0.0000000000000000000, 1.000000000000000000, 0.0000000000000000000 ) ) ;
#81 = LOCAL_TIME ( 16, 36, 13.00000000000000000, #146 ) ;
#82 = COORDINATED_UNIVERSAL_TIME_OFFSET ( 1, 0, .AHEAD. ) ;
#83 = AXIS2_PLACEMENT_3D ( 'NONE', #117, #7, #55 ) ;
#84 = ORGANIZATION ( 'UNSPECIFIED', 'UNSPECIFIED', '' ) ;
#85 = ADVANCED_FACE ( 'NONE', ( #151, #214 ), #129, .T. ) ;
#86 = ORIENTED_EDGE ( 'NONE', *, *, #173, .T. ) ;
#87 = EDGE_LOOP ( 'NONE', ( #144 ) ) ;
#88 =( NAMED_UNIT ( * ) PLANE_ANGLE_UNIT ( ) SI_UNIT ( $, .RADIAN. ) );
#89 = CARTESIAN_POINT ( 'NONE',  ( 1.326762908760390423E-13, 8.998558695971053960E-33, 38.00000000000000000 ) ) ;
#90 = AXIS2_PLACEMENT_3D ( 'NONE', #181, #56, #80 ) ;
#91 = ADVANCED_FACE ( 'NONE', ( #112, #116 ), #97, .T. ) ;
#92 = CARTESIAN_POINT ( 'NONE',  ( -6.413731847436034514E-31, 0.0000000000000000000, -1.836965810494968570E-16 ) ) ;
#93 = COORDINATED_UNIVERSAL_TIME_OFFSET ( 1, 0, .AHEAD. ) ;
#94 = DIRECTION ( 'NONE',  ( 0.0000000000000000000, -1.000000000000000000, 0.0000000000000000000 ) ) ;
#95 = DATE_AND_TIME ( #218, #68 ) ;
#96 = DESIGN_CONTEXT ( 'detailed design', #137, 'design' ) ;
#97 = CONICAL_SURFACE ( 'NONE', #220, 1.199999999999996847, 0.7853981633974453924 ) ;
#98 = FACE_OUTER_BOUND ( 'NONE', #87, .T. ) ;
#99 = APPROVAL_ROLE ( '' ) ;
#100 = VERTEX_POINT ( 'NONE', #9 ) ;
#101 = VERTEX_POINT ( 'NONE', #140 ) ;
#102 = AXIS2_PLACEMENT_3D ( 'NONE', #33, #157, #66 ) ;
#103 = ORIENTED_EDGE ( 'NONE', *, *, #108, .F. ) ;
#104 = EDGE_LOOP ( 'NONE', ( #143 ) ) ;
#105 = CLOSED_SHELL ( 'NONE', ( #32, #91, #29, #62, #201 ) ) ;
#106 =( LENGTH_UNIT ( ) NAMED_UNIT ( * ) SI_UNIT ( .MILLI., .METRE. ) );
#107 = EDGE_LOOP ( 'NONE', ( #203 ) ) ;
#108 = EDGE_CURVE ( 'NONE', #185, #185, #172, .T. ) ;
#109 = APPROVAL_PERSON_ORGANIZATION ( #59, #170, #178 ) ;
#110 = DIRECTION ( 'NONE',  ( -3.491481338843133355E-15, 1.224646799147353207E-16, -1.000000000000000000 ) ) ;
#111 =( NAMED_UNIT ( * ) SI_UNIT ( $, .STERADIAN. ) SOLID_ANGLE_UNIT ( ) );
#112 = FACE_OUTER_BOUND ( 'NONE', #124, .T. ) ;
#113 = CALENDAR_DATE ( 2021, 16, 11 ) ;
#114 = PLANE ( 'NONE',  #202 ) ;
#115 = PERSON_AND_ORGANIZATION ( #186, #84 ) ;
#116 = FACE_BOUND ( 'NONE', #107, .T. ) ;
#117 = CARTESIAN_POINT ( 'NONE',  ( -3.642977224432303886E-31, -9.741282687068007117E-33, -1.043390146154802931E-16 ) ) ;
#118 = AXIS2_PLACEMENT_3D ( 'NONE', #92, #71, #196 ) ;
#119 = APPROVAL_PERSON_ORGANIZATION ( #115, #123, #10 ) ;
#120 = EDGE_LOOP ( 'NONE', ( #155 ) ) ;
#121 = ORIENTED_EDGE ( 'NONE', *, *, #173, .F. ) ;
#122 = AXIS2_PLACEMENT_3D ( 'NONE', #197, #128, #216 ) ;
#123 = APPROVAL ( #200, 'UNSPECIFIED' ) ;
#124 = EDGE_LOOP ( 'NONE', ( #121 ) ) ;
#125 = DIRECTION ( 'NONE',  ( -3.491481338843133355E-15, 1.224646799147353207E-16, -1.000000000000000000 ) ) ;
#126 = AXIS2_PLACEMENT_3D ( 'NONE', #35, #110, #167 ) ;
#127 = AXIS2_PLACEMENT_3D ( 'NONE', #58, #212, #76 ) ;
#128 = DIRECTION ( 'NONE',  ( 3.491481338843133355E-15, -1.227517819005651059E-16, 1.000000000000000000 ) ) ;
#129 = CYLINDRICAL_SURFACE ( 'NONE', #118, 0.8500000000000000888 ) ;
#130 = CALENDAR_DATE ( 2021, 16, 11 ) ;
#131 = CARTESIAN_POINT ( 'NONE',  ( 1.326762908760390423E-13, -4.653657836759941941E-15, 38.00000000000000000 ) ) ;
#132 = PERSON_AND_ORGANIZATION ( #186, #84 ) ;
#133 = CARTESIAN_POINT ( 'NONE',  ( 1.483879569008331360E-14, -0.8500000000000011990, 4.249999999999999112 ) ) ;
#134 = EDGE_CURVE ( 'NONE', #101, #101, #67, .T. ) ;
#135 = SECURITY_CLASSIFICATION_LEVEL ( 'unclassified' ) ;
#136 = CIRCLE ( 'NONE', #102, 1.199999999999996847 ) ;
#137 = APPLICATION_CONTEXT ( 'configuration controlled 3d designs of mechanical parts and assemblies' ) ;
#138 = SECURITY_CLASSIFICATION ( '', '', #135 ) ;
#139 = ORIENTED_EDGE ( 'NONE', *, *, #70, .T. ) ;
#140 = CARTESIAN_POINT ( 'NONE',  ( 1.483879569008331360E-14, -0.8500000000000011990, 4.249999999999999112 ) ) ;
#141 = EDGE_LOOP ( 'NONE', ( #86 ) ) ;
#142 = EDGE_LOOP ( 'NONE', ( #2 ) ) ;
#143 = ORIENTED_EDGE ( 'NONE', *, *, #70, .F. ) ;
#144 = ORIENTED_EDGE ( 'NONE', *, *, #108, .T. ) ;
#145 = DIRECTION ( 'NONE',  ( -4.348894832703450587E-31, -1.000000000000000000, -1.227517819005651059E-16 ) ) ;
#146 = COORDINATED_UNIVERSAL_TIME_OFFSET ( 1, 0, .AHEAD. ) ;
#147 = FACE_OUTER_BOUND ( 'NONE', #142, .T. ) ;
#148 = PERSON_AND_ORGANIZATION ( #186, #84 ) ;
#149 = DIRECTION ( 'NONE',  ( 3.491481338843133355E-15, -1.224646799147353207E-16, 1.000000000000000000 ) ) ;
#150 = MANIFOLD_SOLID_BREP ( 'Corps-Déplacer/Copier1[2]', #16 ) ;
#151 = FACE_OUTER_BOUND ( 'NONE', #159, .T. ) ;
#152 = DATE_AND_TIME ( #113, #187 ) ;
#153 = COORDINATED_UNIVERSAL_TIME_OFFSET ( 1, 0, .AHEAD. ) ;
#154 = AXIS2_PLACEMENT_3D ( 'NONE', #209, #160, #145 ) ;
#155 = ORIENTED_EDGE ( 'NONE', *, *, #134, .T. ) ;
#156 = CC_DESIGN_PERSON_AND_ORGANIZATION_ASSIGNMENT ( #132, #39, ( #51 ) ) ;
#157 = DIRECTION ( 'NONE',  ( -3.491481338843133355E-15, 1.224646799147353207E-16, -1.000000000000000000 ) ) ;
#158 = CC_DESIGN_APPROVAL ( #123, ( #166 ) ) ;
#159 = EDGE_LOOP ( 'NONE', ( #139 ) ) ;
#160 = DIRECTION ( 'NONE',  ( 3.491481338843133355E-15, -1.227517819005651059E-16, 1.000000000000000000 ) ) ;
#161 = PERSON_AND_ORGANIZATION_ROLE ( 'creator' ) ;
#162 = FACE_OUTER_BOUND ( 'NONE', #120, .T. ) ;
#163 = PERSON_AND_ORGANIZATION_ROLE ( 'design_supplier' ) ;
#164 = CARTESIAN_POINT ( 'NONE',  ( -4.275811853558651348E-31, 1.499752910594655314E-32, -1.224641187678636516E-16 ) ) ;
#165 = APPROVAL_DATE_TIME ( #43, #63 ) ;
#166 = PRODUCT_DEFINITION ( 'UNKNOWN', '', #51, #96 ) ;
#167 = DIRECTION ( 'NONE',  ( 4.275831445896958607E-31, 1.000000000000000000, 1.224646799147353207E-16 ) ) ;
#168 = FACE_OUTER_BOUND ( 'NONE', #141, .T. ) ;
#169 = DATE_TIME_ROLE ( 'creation_date' ) ;
#170 = APPROVAL ( #210, 'UNSPECIFIED' ) ;
#171 = LOCAL_TIME ( 16, 36, 13.00000000000000000, #93 ) ;
#172 = CIRCLE ( 'NONE', #90, 1.499999999999994893 ) ;
#173 = EDGE_CURVE ( 'NONE', #20, #20, #211, .T. ) ;
#174 = CC_DESIGN_PERSON_AND_ORGANIZATION_ASSIGNMENT ( #75, #163, ( #51 ) ) ;
#175 = APPROVAL_PERSON_ORGANIZATION ( #60, #63, #99 ) ;
#176 = EDGE_LOOP ( 'NONE', ( #223 ) ) ;
#177 = FACE_OUTER_BOUND ( 'NONE', #64, .T. ) ;
#178 = APPROVAL_ROLE ( '' ) ;
#179 = DIRECTION ( 'NONE',  ( -3.491481338843133355E-15, 1.224646799147353207E-16, -1.000000000000000000 ) ) ;
#180 = DATE_AND_TIME ( #23, #81 ) ;
#181 = CARTESIAN_POINT ( 'NONE',  ( 2.586740097140782054E-14, -3.877382746112936507E-16, 7.408718094417402256 ) ) ;
#182 = CIRCLE ( 'NONE', #54, 0.8500000000000006439 ) ;
#183 = PERSON_AND_ORGANIZATION_ROLE ( 'classification_officer' ) ;
#184 = DIRECTION ( 'NONE',  ( -4.275831445896958607E-31, -1.000000000000000000, -1.224646799147353207E-16 ) ) ;
#185 = VERTEX_POINT ( 'NONE', #30 ) ;
#186 = PERSON ( 'UNSPECIFIED', 'UNSPECIFIED', 'UNSPECIFIED', ('UNSPECIFIED'), ('UNSPECIFIED'), ('UNSPECIFIED') ) ;
#187 = LOCAL_TIME ( 16, 36, 13.00000000000000000, #153 ) ;
#188 = ADVANCED_FACE ( 'NONE', ( #162 ), #208, .T. ) ;
#189 = TOROIDAL_SURFACE ( 'NONE', #154, 8.849999999999999645, 8.000000000000000000 ) ;
#190 = CIRCLE ( 'NONE', #83, 0.8499999999999996447 ) ;
#191 = CC_DESIGN_PERSON_AND_ORGANIZATION_ASSIGNMENT ( #195, #4, ( #24 ) ) ;
#192 = DIRECTION ( 'NONE',  ( 4.275831445896958607E-31, 1.000000000000000000, 1.224646799147353207E-16 ) ) ;
#193 = UNCERTAINTY_MEASURE_WITH_UNIT (LENGTH_MEASURE( 1.000000000000000082E-05 ), #106, 'distance_accuracy_value', 'NONE');
#194 = DIRECTION ( 'NONE',  ( 3.491481338843133355E-15, -1.227517819005651059E-16, 1.000000000000000000 ) ) ;
#195 = PERSON_AND_ORGANIZATION ( #186, #84 ) ;
#196 = DIRECTION ( 'NONE',  ( -4.285855558155654155E-31, -1.000000000000000000, -1.227517819005651059E-16 ) ) ;
#197 = CARTESIAN_POINT ( 'NONE',  ( 1.483879569008331360E-14, -5.216950730774016876E-16, 4.249999999999999112 ) ) ;
#198 = APPROVAL_DATE_TIME ( #95, #170 ) ;
#199 = VERTEX_POINT ( 'NONE', #44 ) ;
#200 = APPROVAL_STATUS ( 'not_yet_approved' ) ;
#201 = ADVANCED_FACE ( 'NONE', ( #147 ), #38, .F. ) ;
#202 = AXIS2_PLACEMENT_3D ( 'NONE', #164, #149, #184 ) ;
#203 = ORIENTED_EDGE ( 'NONE', *, *, #11, .T. ) ;
#204 = FACE_OUTER_BOUND ( 'NONE', #52, .T. ) ;
#205 = AXIS2_PLACEMENT_3D ( 'NONE', #5, #73, #26 ) ;
#206 = ADVANCED_FACE ( 'NONE', ( #41 ), #114, .F. ) ;
#207 = ORIENTED_EDGE ( 'NONE', *, *, #11, .F. ) ;
#208 = PLANE ( 'NONE',  #205 ) ;
#209 = CARTESIAN_POINT ( 'NONE',  ( 1.483879569008331360E-14, 0.0000000000000000000, 4.249999999999999112 ) ) ;
#210 = APPROVAL_STATUS ( 'not_yet_approved' ) ;
#211 = CIRCLE ( 'NONE', #31, 1.499999999999996669 ) ;
#212 = DIRECTION ( 'NONE',  ( 3.491481338843133355E-15, -1.224646799147353207E-16, 1.000000000000000000 ) ) ;
#213 = DIRECTION ( 'NONE',  ( 0.0000000000000000000, 0.0000000000000000000, 1.000000000000000000 ) ) ;
#214 = FACE_OUTER_BOUND ( 'NONE', #176, .T. ) ;
#215 = PERSON_AND_ORGANIZATION ( #186, #84 ) ;
#216 = DIRECTION ( 'NONE',  ( 0.0000000000000000000, -1.000000000000000000, 0.0000000000000000000 ) ) ;
#217 = COORDINATED_UNIVERSAL_TIME_OFFSET ( 1, 0, .AHEAD. ) ;
#218 = CALENDAR_DATE ( 2021, 16, 11 ) ;
#219 = MANIFOLD_SOLID_BREP ( 'Corps-Déplacer/Copier1[1]', #105 ) ;
#220 = AXIS2_PLACEMENT_3D ( 'NONE', #131, #28, #3 ) ;
#221 = LOCAL_TIME ( 16, 36, 13.00000000000000000, #217 ) ;
#222 = CC_DESIGN_APPROVAL ( #63, ( #138 ) ) ;
#223 = ORIENTED_EDGE ( 'NONE', *, *, #134, .F. ) ;
ENDSEC;
END-ISO-10303-21;
