ISO-10303-21;
HEADER;
FILE_DESCRIPTION (( 'STEP AP203' ),
    '1' );
FILE_NAME ('966076.step',
    '2021-11-16T15:36:13',
    ( '' ),
    ( '' ),
    'SwSTEP 2.0',
    'SolidWorks 2019',
    '' );
FILE_SCHEMA (( 'CONFIG_CONTROL_DESIGN' ));
ENDSEC;

DATA;
#1 = CARTESIAN_POINT ( 'NONE',  ( 1.326762908760390423E-13, -4.653657836759941941E-15, 38.00000000000000000 ) ) ;
#2 = ORGANIZATION ( 'UNSPECIFIED', 'UNSPECIFIED', '' ) ;
#3 = DIRECTION ( 'NONE',  ( 3.491481338843133355E-15, -1.227517819005651059E-16, 1.000000000000000000 ) ) ;
#4 = DATE_TIME_ROLE ( 'creation_date' ) ;
#5 = PERSON_AND_ORGANIZATION ( #142, #2 ) ;
#6 = AXIS2_PLACEMENT_3D ( 'NONE', #29, #183, #187 ) ;
#7 = LOCAL_TIME ( 16, 36, 13.00000000000000000, #75 ) ;
#8 = COORDINATED_UNIVERSAL_TIME_OFFSET ( 1, 0, .AHEAD. ) ;
#9 = ORIENTED_EDGE ( 'NONE', *, *, #32, .T. ) ;
#10 = EDGE_CURVE ( 'NONE', #124, #124, #104, .T. ) ;
#11 = FACE_OUTER_BOUND ( 'NONE', #96, .T. ) ;
#12 = DIRECTION ( 'NONE',  ( -3.491481338843133355E-15, 1.224646799147353207E-16, -1.000000000000000000 ) ) ;
#13 = CARTESIAN_POINT ( 'NONE',  ( -6.413731847436034514E-31, 0.0000000000000000000, -1.836965810494968570E-16 ) ) ;
#14 = ORIENTED_EDGE ( 'NONE', *, *, #32, .F. ) ;
#15 = EDGE_LOOP ( 'NONE', ( #170 ) ) ;
#16 = CC_DESIGN_DATE_AND_TIME_ASSIGNMENT ( #214, #4, ( #88 ) ) ;
#17 = CC_DESIGN_SECURITY_CLASSIFICATION ( #83, ( #109 ) ) ;
#18 = FACE_OUTER_BOUND ( 'NONE', #53, .T. ) ;
#19 = CARTESIAN_POINT ( 'NONE',  ( 1.396592535537253027E-14, 0.0000000000000000000, 3.999999999999999112 ) ) ;
#20 = APPLICATION_CONTEXT ( 'configuration controlled 3d designs of mechanical parts and assemblies' ) ;
#21 = AXIS2_PLACEMENT_3D ( 'NONE', #206, #161, #223 ) ;
#22 = APPROVAL_STATUS ( 'not_yet_approved' ) ;
#23 = PRODUCT_DEFINITION_SHAPE ( 'NONE', 'NONE',  #88 ) ;
#24 = CC_DESIGN_PERSON_AND_ORGANIZATION_ASSIGNMENT ( #129, #193, ( #83 ) ) ;
#25 = DIRECTION ( 'NONE',  ( 1.000000000000000000, 0.0000000000000000000, 0.0000000000000000000 ) ) ;
#26 = SECURITY_CLASSIFICATION_LEVEL ( 'unclassified' ) ;
#27 = AXIS2_PLACEMENT_3D ( 'NONE', #138, #222, #136 ) ;
#28 = DIRECTION ( 'NONE',  ( -3.491481338843133355E-15, 1.224646799147353207E-16, -1.000000000000000000 ) ) ;
#29 = CARTESIAN_POINT ( 'NONE',  ( -3.428684446524520609E-31, -1.049468268505620488E-32, -9.820142552045201813E-17 ) ) ;
#30 = ORIENTED_EDGE ( 'NONE', *, *, #204, .T. ) ;
#31 = CC_DESIGN_PERSON_AND_ORGANIZATION_ASSIGNMENT ( #179, #36, ( #117 ) ) ;
#32 = EDGE_CURVE ( 'NONE', #45, #45, #114, .T. ) ;
#33 = CALENDAR_DATE ( 2021, 16, 11 ) ;
#34 = PERSON_AND_ORGANIZATION ( #142, #2 ) ;
#35 = LOCAL_TIME ( 16, 36, 13.00000000000000000, #211 ) ;
#36 = PERSON_AND_ORGANIZATION_ROLE ( 'design_owner' ) ;
#37 = CC_DESIGN_DATE_AND_TIME_ASSIGNMENT ( #131, #196, ( #83 ) ) ;
#38 = ADVANCED_FACE ( 'NONE', ( #76 ), #77, .F. ) ;
#39 = CYLINDRICAL_SURFACE ( 'NONE', #212, 1.499999999999994893 ) ;
#40 = EDGE_LOOP ( 'NONE', ( #14 ) ) ;
#41 = DESIGN_CONTEXT ( 'detailed design', #175, 'design' ) ;
#42 = CARTESIAN_POINT ( 'NONE',  ( 0.0000000000000000000, 0.0000000000000000000, 0.0000000000000000000 ) ) ;
#43 = CARTESIAN_POINT ( 'NONE',  ( 1.396592535537253342E-14, 1.124819836996387048E-32, 4.000000000000000000 ) ) ;
#44 = CARTESIAN_POINT ( 'NONE',  ( 1.396592535537253027E-14, -0.7999999999999997113, 3.999999999999999112 ) ) ;
#45 = VERTEX_POINT ( 'NONE', #101 ) ;
#46 = AXIS2_PLACEMENT_3D ( 'NONE', #1, #125, #207 ) ;
#47 = PERSON_AND_ORGANIZATION_ROLE ( 'design_supplier' ) ;
#48 = TOROIDAL_SURFACE ( 'NONE', #63, 8.799999999999998934, 8.000000000000000000 ) ;
#49 = APPLICATION_PROTOCOL_DEFINITION ( 'international standard', 'config_control_design', 1994, #20 ) ;
#50 = APPROVAL_DATE_TIME ( #67, #57 ) ;
#51 = PERSON_AND_ORGANIZATION ( #142, #2 ) ;
#52 = AXIS2_PLACEMENT_3D ( 'NONE', #199, #28, #188 ) ;
#53 = EDGE_LOOP ( 'NONE', ( #93 ) ) ;
#54 = ADVANCED_FACE ( 'NONE', ( #11, #79 ), #221, .T. ) ;
#55 = ADVANCED_BREP_SHAPE_REPRESENTATION ( '966076', ( #182, #102, #127 ), #98 ) ;
#56 = EDGE_LOOP ( 'NONE', ( #116 ) ) ;
#57 = APPROVAL ( #22, 'UNSPECIFIED' ) ;
#58 = FACE_OUTER_BOUND ( 'NONE', #40, .T. ) ;
#59 = FACE_OUTER_BOUND ( 'NONE', #62, .T. ) ;
#60 = UNCERTAINTY_MEASURE_WITH_UNIT (LENGTH_MEASURE( 1.000000000000000082E-05 ), #173, 'distance_accuracy_value', 'NONE');
#61 = DIRECTION ( 'NONE',  ( 0.0000000000000000000, -1.000000000000000000, 0.0000000000000000000 ) ) ;
#62 = EDGE_LOOP ( 'NONE', ( #215 ) ) ;
#63 = AXIS2_PLACEMENT_3D ( 'NONE', #19, #3, #140 ) ;
#64 = CARTESIAN_POINT ( 'NONE',  ( 1.396592535537253027E-14, -0.7999999999999997113, 3.999999999999999112 ) ) ;
#65 = CARTESIAN_POINT ( 'NONE',  ( 1.326762908760390423E-13, 1.199999999999992406, 38.00000000000000000 ) ) ;
#66 = CALENDAR_DATE ( 2021, 16, 11 ) ;
#67 = DATE_AND_TIME ( #164, #35 ) ;
#68 = CALENDAR_DATE ( 2021, 16, 11 ) ;
#69 = CC_DESIGN_PERSON_AND_ORGANIZATION_ASSIGNMENT ( #5, #148, ( #88 ) ) ;
#70 = APPROVAL_STATUS ( 'not_yet_approved' ) ;
#71 = EDGE_LOOP ( 'NONE', ( #92 ) ) ;
#72 = LOCAL_TIME ( 16, 36, 13.00000000000000000, #146 ) ;
#73 = DIRECTION ( 'NONE',  ( 3.491481338843133355E-15, -1.224646799147353207E-16, 1.000000000000000000 ) ) ;
#74 = DIRECTION ( 'NONE',  ( -4.275831445896958607E-31, -1.000000000000000000, -1.224646799147353207E-16 ) ) ;
#75 = COORDINATED_UNIVERSAL_TIME_OFFSET ( 1, 0, .AHEAD. ) ;
#76 = FACE_OUTER_BOUND ( 'NONE', #203, .T. ) ;
#77 = PLANE ( 'NONE',  #167 ) ;
#78 = ADVANCED_FACE ( 'NONE', ( #217, #168 ), #39, .T. ) ;
#79 = FACE_OUTER_BOUND ( 'NONE', #152, .T. ) ;
#80 = AXIS2_PLACEMENT_3D ( 'NONE', #172, #118, #61 ) ;
#81 = CC_DESIGN_APPROVAL ( #82, ( #83 ) ) ;
#82 = APPROVAL ( #163, 'UNSPECIFIED' ) ;
#83 = SECURITY_CLASSIFICATION ( '', '', #26 ) ;
#84 = MECHANICAL_CONTEXT ( 'NONE', #20, 'mechanical' ) ;
#85 = PERSON_AND_ORGANIZATION ( #142, #2 ) ;
#86 = APPROVAL_ROLE ( '' ) ;
#87 = DATE_AND_TIME ( #185, #7 ) ;
#88 = PRODUCT_DEFINITION ( 'UNKNOWN', '', #109, #41 ) ;
#89 = AXIS2_PLACEMENT_3D ( 'NONE', #13, #219, #189 ) ;
#90 = EDGE_LOOP ( 'NONE', ( #30 ) ) ;
#91 = ORIENTED_EDGE ( 'NONE', *, *, #204, .F. ) ;
#92 = ORIENTED_EDGE ( 'NONE', *, *, #95, .T. ) ;
#93 = ORIENTED_EDGE ( 'NONE', *, *, #195, .F. ) ;
#94 = AXIS2_PLACEMENT_3D ( 'NONE', #100, #159, #128 ) ;
#95 = EDGE_CURVE ( 'NONE', #176, #176, #130, .T. ) ;
#96 = EDGE_LOOP ( 'NONE', ( #9 ) ) ;
#97 = CC_DESIGN_PERSON_AND_ORGANIZATION_ASSIGNMENT ( #111, #147, ( #109 ) ) ;
#98 =( GEOMETRIC_REPRESENTATION_CONTEXT ( 3 ) GLOBAL_UNCERTAINTY_ASSIGNED_CONTEXT ( ( #60 ) ) GLOBAL_UNIT_ASSIGNED_CONTEXT ( ( #173, #143, #192 ) ) REPRESENTATION_CONTEXT ( 'NONE', 'WORKASPACE' ) );
#99 = CARTESIAN_POINT ( 'NONE',  ( 1.316288464743861212E-13, 1.499999999999992228, 37.69999999999999574 ) ) ;
#100 = CARTESIAN_POINT ( 'NONE',  ( -4.275811853558651348E-31, 1.499752910594655314E-32, -1.224641187678636516E-16 ) ) ;
#101 = CARTESIAN_POINT ( 'NONE',  ( -6.857368893049041218E-31, -0.7999999999999994893, -1.964028510409040363E-16 ) ) ;
#102 = MANIFOLD_SOLID_BREP ( 'Corps-Déplacer/Copier1[2]', #205 ) ;
#103 = ORIENTED_EDGE ( 'NONE', *, *, #95, .F. ) ;
#104 = CIRCLE ( 'NONE', #80, 0.7999999999999991562 ) ;
#105 = CONICAL_SURFACE ( 'NONE', #52, 1.199999999999996847, 0.7853981633974453924 ) ;
#106 = ADVANCED_FACE ( 'NONE', ( #186 ), #112, .T. ) ;
#107 = DIRECTION ( 'NONE',  ( 0.0000000000000000000, 0.0000000000000000000, 1.000000000000000000 ) ) ;
#108 = PERSON_AND_ORGANIZATION ( #142, #2 ) ;
#109 = PRODUCT_DEFINITION_FORMATION_WITH_SPECIFIED_SOURCE ( 'ANY', '', #117, .NOT_KNOWN. ) ;
#110 = DATE_AND_TIME ( #66, #209 ) ;
#111 = PERSON_AND_ORGANIZATION ( #142, #2 ) ;
#112 = PLANE ( 'NONE',  #115 ) ;
#113 = ADVANCED_FACE ( 'NONE', ( #59, #133 ), #105, .T. ) ;
#114 = CIRCLE ( 'NONE', #6, 0.7999999999999994893 ) ;
#115 = AXIS2_PLACEMENT_3D ( 'NONE', #119, #73, #74 ) ;
#116 = ORIENTED_EDGE ( 'NONE', *, *, #10, .T. ) ;
#117 = PRODUCT ( '966076', '966076', '', ( #84 ) ) ;
#118 = DIRECTION ( 'NONE',  ( 3.491481338843133355E-15, -1.227517819005651059E-16, 1.000000000000000000 ) ) ;
#119 = CARTESIAN_POINT ( 'NONE',  ( 1.396592535537253342E-14, 1.124819836996387048E-32, 4.000000000000000000 ) ) ;
#120 = APPROVAL ( #70, 'UNSPECIFIED' ) ;
#121 = ORIENTED_EDGE ( 'NONE', *, *, #145, .T. ) ;
#122 = CLOSED_SHELL ( 'NONE', ( #78, #113, #165, #166, #38 ) ) ;
#123 = LOCAL_TIME ( 16, 36, 13.00000000000000000, #178 ) ;
#124 = VERTEX_POINT ( 'NONE', #44 ) ;
#125 = DIRECTION ( 'NONE',  ( -3.491481338843133355E-15, 1.224646799147353207E-16, -1.000000000000000000 ) ) ;
#126 = VERTEX_POINT ( 'NONE', #99 ) ;
#127 = AXIS2_PLACEMENT_3D ( 'NONE', #149, #107, #25 ) ;
#128 = DIRECTION ( 'NONE',  ( -4.275831445896958607E-31, -1.000000000000000000, -1.224646799147353207E-16 ) ) ;
#129 = PERSON_AND_ORGANIZATION ( #142, #2 ) ;
#130 = CIRCLE ( 'NONE', #27, 0.7999999999999991562 ) ;
#131 = DATE_AND_TIME ( #33, #123 ) ;
#132 = APPLICATION_PROTOCOL_DEFINITION ( 'international standard', 'config_control_design', 1994, #175 ) ;
#133 = FACE_BOUND ( 'NONE', #15, .T. ) ;
#134 = APPROVAL_ROLE ( '' ) ;
#135 = APPROVAL_PERSON_ORGANIZATION ( #85, #82, #134 ) ;
#136 = DIRECTION ( 'NONE',  ( 0.0000000000000000000, -1.000000000000000000, 0.0000000000000000000 ) ) ;
#137 = DIRECTION ( 'NONE',  ( -3.491481338843133355E-15, 1.224646799147353207E-16, -1.000000000000000000 ) ) ;
#138 = CARTESIAN_POINT ( 'NONE',  ( 1.396592535537253027E-14, -4.910071276022603248E-16, 3.999999999999999112 ) ) ;
#139 = DIRECTION ( 'NONE',  ( 4.275831445896958607E-31, 1.000000000000000000, 1.224646799147353207E-16 ) ) ;
#140 = DIRECTION ( 'NONE',  ( -4.349082449591986113E-31, -1.000000000000000000, -1.227517819005651059E-16 ) ) ;
#141 = DIRECTION ( 'NONE',  ( -3.491481338843133355E-15, 1.224646799147353207E-16, -1.000000000000000000 ) ) ;
#142 = PERSON ( 'UNSPECIFIED', 'UNSPECIFIED', 'UNSPECIFIED', ('UNSPECIFIED'), ('UNSPECIFIED'), ('UNSPECIFIED') ) ;
#143 =( NAMED_UNIT ( * ) PLANE_ANGLE_UNIT ( ) SI_UNIT ( $, .RADIAN. ) );
#144 = APPROVAL_PERSON_ORGANIZATION ( #51, #57, #162 ) ;
#145 = EDGE_CURVE ( 'NONE', #126, #126, #180, .T. ) ;
#146 = COORDINATED_UNIVERSAL_TIME_OFFSET ( 1, 0, .AHEAD. ) ;
#147 = PERSON_AND_ORGANIZATION_ROLE ( 'creator' ) ;
#148 = PERSON_AND_ORGANIZATION_ROLE ( 'creator' ) ;
#149 = CARTESIAN_POINT ( 'NONE',  ( 0.0000000000000000000, 0.0000000000000000000, 0.0000000000000000000 ) ) ;
#150 = EDGE_LOOP ( 'NONE', ( #121 ) ) ;
#151 = ADVANCED_FACE ( 'NONE', ( #58 ), #200, .F. ) ;
#152 = EDGE_LOOP ( 'NONE', ( #103 ) ) ;
#153 = DIRECTION ( 'NONE',  ( 0.0000000000000000000, 1.000000000000000000, 0.0000000000000000000 ) ) ;
#154 = CIRCLE ( 'NONE', #46, 1.199999999999996847 ) ;
#155 = DIRECTION ( 'NONE',  ( 3.491481338843133355E-15, -1.224646799147353207E-16, 1.000000000000000000 ) ) ;
#156 = DIRECTION ( 'NONE',  ( 4.275831445896958607E-31, 1.000000000000000000, 1.224646799147353207E-16 ) ) ;
#157 = PLANE ( 'NONE',  #158 ) ;
#158 = AXIS2_PLACEMENT_3D ( 'NONE', #160, #141, #139 ) ;
#159 = DIRECTION ( 'NONE',  ( 3.491481338843133355E-15, -1.224646799147353207E-16, 1.000000000000000000 ) ) ;
#160 = CARTESIAN_POINT ( 'NONE',  ( 1.326762908760390423E-13, 8.998558695971053960E-33, 38.00000000000000000 ) ) ;
#161 = DIRECTION ( 'NONE',  ( -3.491481338843133355E-15, 1.227517819005651059E-16, -1.000000000000000000 ) ) ;
#162 = APPROVAL_ROLE ( '' ) ;
#163 = APPROVAL_STATUS ( 'not_yet_approved' ) ;
#164 = CALENDAR_DATE ( 2021, 16, 11 ) ;
#165 = ADVANCED_FACE ( 'NONE', ( #18 ), #157, .F. ) ;
#166 = ADVANCED_FACE ( 'NONE', ( #190, #208 ), #48, .F. ) ;
#167 = AXIS2_PLACEMENT_3D ( 'NONE', #43, #155, #218 ) ;
#168 = FACE_OUTER_BOUND ( 'NONE', #198, .T. ) ;
#169 = CARTESIAN_POINT ( 'NONE',  ( 1.316288464743861212E-13, -4.616918432785521081E-15, 37.69999999999999574 ) ) ;
#170 = ORIENTED_EDGE ( 'NONE', *, *, #195, .T. ) ;
#171 = CC_DESIGN_APPROVAL ( #57, ( #109 ) ) ;
#172 = CARTESIAN_POINT ( 'NONE',  ( 1.396592535537253027E-14, -4.910071276022603248E-16, 3.999999999999999112 ) ) ;
#173 =( LENGTH_UNIT ( ) NAMED_UNIT ( * ) SI_UNIT ( .MILLI., .METRE. ) );
#174 = VERTEX_POINT ( 'NONE', #65 ) ;
#175 = APPLICATION_CONTEXT ( 'configuration controlled 3d designs of mechanical parts and assemblies' ) ;
#176 = VERTEX_POINT ( 'NONE', #64 ) ;
#177 = APPROVAL_PERSON_ORGANIZATION ( #34, #120, #86 ) ;
#178 = COORDINATED_UNIVERSAL_TIME_OFFSET ( 1, 0, .AHEAD. ) ;
#179 = PERSON_AND_ORGANIZATION ( #142, #2 ) ;
#180 = CIRCLE ( 'NONE', #194, 1.499999999999996669 ) ;
#181 = APPROVAL_DATE_TIME ( #110, #120 ) ;
#182 = MANIFOLD_SOLID_BREP ( 'Corps-Déplacer/Copier1[1]', #122 ) ;
#183 = DIRECTION ( 'NONE',  ( 3.491481338843133355E-15, -1.227517819005651059E-16, 1.000000000000000000 ) ) ;
#184 = CC_DESIGN_APPROVAL ( #120, ( #88 ) ) ;
#185 = CALENDAR_DATE ( 2021, 16, 11 ) ;
#186 = FACE_OUTER_BOUND ( 'NONE', #71, .T. ) ;
#187 = DIRECTION ( 'NONE',  ( -4.285855558155653280E-31, -1.000000000000000000, -1.227517819005651059E-16 ) ) ;
#188 = DIRECTION ( 'NONE',  ( 0.0000000000000000000, 1.000000000000000000, 0.0000000000000000000 ) ) ;
#189 = DIRECTION ( 'NONE',  ( -4.285855558155653280E-31, -1.000000000000000000, -1.227517819005650812E-16 ) ) ;
#190 = FACE_OUTER_BOUND ( 'NONE', #56, .T. ) ;
#191 = CARTESIAN_POINT ( 'NONE',  ( 2.539219478909127687E-14, 1.499999999999994449, 7.272613634390703297 ) ) ;
#192 =( NAMED_UNIT ( * ) SI_UNIT ( $, .STERADIAN. ) SOLID_ANGLE_UNIT ( ) );
#193 = PERSON_AND_ORGANIZATION_ROLE ( 'classification_officer' ) ;
#194 = AXIS2_PLACEMENT_3D ( 'NONE', #169, #12, #153 ) ;
#195 = EDGE_CURVE ( 'NONE', #174, #174, #154, .T. ) ;
#196 = DATE_TIME_ROLE ( 'classification_date' ) ;
#197 = CIRCLE ( 'NONE', #21, 1.499999999999994893 ) ;
#198 = EDGE_LOOP ( 'NONE', ( #91 ) ) ;
#199 = CARTESIAN_POINT ( 'NONE',  ( 1.326762908760390423E-13, -4.653657836759941941E-15, 38.00000000000000000 ) ) ;
#200 = PLANE ( 'NONE',  #94 ) ;
#201 = ORIENTED_EDGE ( 'NONE', *, *, #10, .F. ) ;
#202 = APPROVAL_DATE_TIME ( #87, #82 ) ;
#203 = EDGE_LOOP ( 'NONE', ( #201 ) ) ;
#204 = EDGE_CURVE ( 'NONE', #210, #210, #197, .T. ) ;
#205 = CLOSED_SHELL ( 'NONE', ( #106, #54, #151 ) ) ;
#206 = CARTESIAN_POINT ( 'NONE',  ( 2.539219478909127687E-14, -4.017191550935433748E-16, 7.272613634390703297 ) ) ;
#207 = DIRECTION ( 'NONE',  ( 0.0000000000000000000, 1.000000000000000000, 0.0000000000000000000 ) ) ;
#208 = FACE_OUTER_BOUND ( 'NONE', #90, .T. ) ;
#209 = LOCAL_TIME ( 16, 36, 13.00000000000000000, #8 ) ;
#210 = VERTEX_POINT ( 'NONE', #191 ) ;
#211 = COORDINATED_UNIVERSAL_TIME_OFFSET ( 1, 0, .AHEAD. ) ;
#212 = AXIS2_PLACEMENT_3D ( 'NONE', #42, #137, #156 ) ;
#213 = PRODUCT_RELATED_PRODUCT_CATEGORY ( 'detail', '', ( #117 ) ) ;
#214 = DATE_AND_TIME ( #68, #72 ) ;
#215 = ORIENTED_EDGE ( 'NONE', *, *, #145, .F. ) ;
#216 = SHAPE_DEFINITION_REPRESENTATION ( #23, #55 ) ;
#217 = FACE_OUTER_BOUND ( 'NONE', #150, .T. ) ;
#218 = DIRECTION ( 'NONE',  ( -4.275831445896958607E-31, -1.000000000000000000, -1.224646799147353207E-16 ) ) ;
#219 = DIRECTION ( 'NONE',  ( 3.491481338843133355E-15, -1.227517819005651059E-16, 1.000000000000000000 ) ) ;
#220 = CC_DESIGN_PERSON_AND_ORGANIZATION_ASSIGNMENT ( #108, #47, ( #109 ) ) ;
#221 = CYLINDRICAL_SURFACE ( 'NONE', #89, 0.7999999999999992673 ) ;
#222 = DIRECTION ( 'NONE',  ( 3.491481338843133355E-15, -1.227517819005651059E-16, 1.000000000000000000 ) ) ;
#223 = DIRECTION ( 'NONE',  ( 0.0000000000000000000, 1.000000000000000000, 0.0000000000000000000 ) ) ;
ENDSEC;
END-ISO-10303-21;
