ISO-10303-21;
HEADER;
FILE_DESCRIPTION (( 'STEP AP203' ),
    '1' );
FILE_NAME ('966075.step',
    '2021-11-16T15:36:12',
    ( '' ),
    ( '' ),
    'SwSTEP 2.0',
    'SolidWorks 2019',
    '' );
FILE_SCHEMA (( 'CONFIG_CONTROL_DESIGN' ));
ENDSEC;

DATA;
#1 = CALENDAR_DATE ( 2021, 16, 11 ) ;
#2 = APPROVAL_STATUS ( 'not_yet_approved' ) ;
#3 = COORDINATED_UNIVERSAL_TIME_OFFSET ( 1, 0, .AHEAD. ) ;
#4 = APPROVAL_STATUS ( 'not_yet_approved' ) ;
#5 = CC_DESIGN_SECURITY_CLASSIFICATION ( #88, ( #207 ) ) ;
#6 = EDGE_LOOP ( 'NONE', ( #7 ) ) ;
#7 = ORIENTED_EDGE ( 'NONE', *, *, #116, .F. ) ;
#8 = DIRECTION ( 'NONE',  ( -4.275831445896958607E-31, -1.000000000000000000, -1.224646799147353207E-16 ) ) ;
#9 = APPLICATION_CONTEXT ( 'configuration controlled 3d designs of mechanical parts and assemblies' ) ;
#10 = DIRECTION ( 'NONE',  ( -3.491481338843133355E-15, 1.224646799147353207E-16, -1.000000000000000000 ) ) ;
#11 = DIRECTION ( 'NONE',  ( 0.0000000000000000000, 1.000000000000000000, 0.0000000000000000000 ) ) ;
#12 = DIRECTION ( 'NONE',  ( -3.491481338843133355E-15, 1.224646799147353207E-16, -1.000000000000000000 ) ) ;
#13 = CARTESIAN_POINT ( 'NONE',  ( 0.0000000000000000000, 0.0000000000000000000, 0.0000000000000000000 ) ) ;
#14 = VERTEX_POINT ( 'NONE', #209 ) ;
#15 = APPROVAL ( #189, 'UNSPECIFIED' ) ;
#16 = PERSON_AND_ORGANIZATION ( #211, #156 ) ;
#17 = AXIS2_PLACEMENT_3D ( 'NONE', #81, #30, #11 ) ;
#18 = DATE_AND_TIME ( #1, #62 ) ;
#19 = ADVANCED_FACE ( 'NONE', ( #41 ), #193, .T. ) ;
#20 = PERSON_AND_ORGANIZATION ( #211, #156 ) ;
#21 = EDGE_LOOP ( 'NONE', ( #22 ) ) ;
#22 = ORIENTED_EDGE ( 'NONE', *, *, #89, .F. ) ;
#23 = ORIENTED_EDGE ( 'NONE', *, *, #89, .T. ) ;
#24 = CC_DESIGN_APPROVAL ( #15, ( #88 ) ) ;
#25 = DIRECTION ( 'NONE',  ( 3.491481338843133355E-15, -1.224646799147353207E-16, 1.000000000000000000 ) ) ;
#26 = ADVANCED_FACE ( 'NONE', ( #197, #49 ), #58, .T. ) ;
#27 = FACE_OUTER_BOUND ( 'NONE', #86, .T. ) ;
#28 = AXIS2_PLACEMENT_3D ( 'NONE', #201, #171, #152 ) ;
#29 = CARTESIAN_POINT ( 'NONE',  ( 1.326762908760390423E-13, -4.653657836759941941E-15, 38.00000000000000000 ) ) ;
#30 = DIRECTION ( 'NONE',  ( -3.491481338843133355E-15, 1.227517819005651059E-16, -1.000000000000000000 ) ) ;
#31 = DIRECTION ( 'NONE',  ( -3.491481338843133355E-15, 1.224646799147353207E-16, -1.000000000000000000 ) ) ;
#32 = AXIS2_PLACEMENT_3D ( 'NONE', #76, #92, #135 ) ;
#33 = CARTESIAN_POINT ( 'NONE',  ( 1.309305502066174693E-14, -0.7499999999999997780, 3.749999999999999112 ) ) ;
#34 = COORDINATED_UNIVERSAL_TIME_OFFSET ( 1, 0, .AHEAD. ) ;
#35 = COORDINATED_UNIVERSAL_TIME_OFFSET ( 1, 0, .AHEAD. ) ;
#36 = EDGE_CURVE ( 'NONE', #223, #223, #194, .T. ) ;
#37 = DIRECTION ( 'NONE',  ( 0.0000000000000000000, 0.0000000000000000000, 1.000000000000000000 ) ) ;
#38 = AXIS2_PLACEMENT_3D ( 'NONE', #47, #107, #187 ) ;
#39 = MECHANICAL_CONTEXT ( 'NONE', #117, 'mechanical' ) ;
#40 = APPROVAL_DATE_TIME ( #18, #110 ) ;
#41 = FACE_OUTER_BOUND ( 'NONE', #72, .T. ) ;
#42 = CC_DESIGN_PERSON_AND_ORGANIZATION_ASSIGNMENT ( #191, #188, ( #78 ) ) ;
#43 = CARTESIAN_POINT ( 'NONE',  ( 1.309305502066175008E-14, 1.124819836996387048E-32, 3.750000000000000000 ) ) ;
#44 = CLOSED_SHELL ( 'NONE', ( #19, #143, #140 ) ) ;
#45 = TOROIDAL_SURFACE ( 'NONE', #120, 8.749999999999998224, 8.000000000000000000 ) ;
#46 = CALENDAR_DATE ( 2021, 16, 11 ) ;
#47 = CARTESIAN_POINT ( 'NONE',  ( 1.309305502066174693E-14, -4.603191821271190607E-16, 3.749999999999999112 ) ) ;
#48 = PRODUCT_DEFINITION_SHAPE ( 'NONE', 'NONE',  #136 ) ;
#49 = FACE_BOUND ( 'NONE', #61, .T. ) ;
#50 = AXIS2_PLACEMENT_3D ( 'NONE', #13, #220, #222 ) ;
#51 = DIRECTION ( 'NONE',  ( 0.0000000000000000000, 1.000000000000000000, 0.0000000000000000000 ) ) ;
#52 = CARTESIAN_POINT ( 'NONE',  ( 1.316288464743861212E-13, -4.616918432785521081E-15, 37.69999999999999574 ) ) ;
#53 = VERTEX_POINT ( 'NONE', #111 ) ;
#54 = PERSON_AND_ORGANIZATION ( #211, #156 ) ;
#55 = PERSON_AND_ORGANIZATION_ROLE ( 'creator' ) ;
#56 =( NAMED_UNIT ( * ) PLANE_ANGLE_UNIT ( ) SI_UNIT ( $, .RADIAN. ) );
#57 = CIRCLE ( 'NONE', #32, 0.7499999999999993339 ) ;
#58 = CONICAL_SURFACE ( 'NONE', #83, 1.199999999999996847, 0.7853981633974453924 ) ;
#59 = SHAPE_DEFINITION_REPRESENTATION ( #48, #128 ) ;
#60 = ADVANCED_FACE ( 'NONE', ( #27, #93 ), #170, .T. ) ;
#61 = EDGE_LOOP ( 'NONE', ( #73 ) ) ;
#62 = LOCAL_TIME ( 16, 36, 12.00000000000000000, #35 ) ;
#63 = DIRECTION ( 'NONE',  ( -4.365125093687771441E-31, -1.000000000000000000, -1.227517819005651059E-16 ) ) ;
#64 = DIRECTION ( 'NONE',  ( -4.275831445896958607E-31, -1.000000000000000000, -1.224646799147353207E-16 ) ) ;
#65 = DIRECTION ( 'NONE',  ( 0.0000000000000000000, -1.000000000000000000, 0.0000000000000000000 ) ) ;
#66 = PERSON_AND_ORGANIZATION ( #211, #156 ) ;
#67 = MANIFOLD_SOLID_BREP ( 'Corps-Déplacer/Copier1[2]', #44 ) ;
#68 = APPROVAL_ROLE ( '' ) ;
#69 = CARTESIAN_POINT ( 'NONE',  ( 1.316288464743861212E-13, 1.499999999999992228, 37.69999999999999574 ) ) ;
#70 = DIRECTION ( 'NONE',  ( 1.000000000000000000, 0.0000000000000000000, 0.0000000000000000000 ) ) ;
#71 = APPROVAL_DATE_TIME ( #145, #15 ) ;
#72 = EDGE_LOOP ( 'NONE', ( #23 ) ) ;
#73 = ORIENTED_EDGE ( 'NONE', *, *, #36, .T. ) ;
#74 = CIRCLE ( 'NONE', #190, 1.499999999999996669 ) ;
#75 = VERTEX_POINT ( 'NONE', #173 ) ;
#76 = CARTESIAN_POINT ( 'NONE',  ( -3.214391668616737332E-31, -1.124808268304440128E-32, -9.206383642542375544E-17 ) ) ;
#77 = DIRECTION ( 'NONE',  ( 3.491481338843133355E-15, -1.227517819005651059E-16, 1.000000000000000000 ) ) ;
#78 = PRODUCT ( '966075', '966075', '', ( #39 ) ) ;
#79 = DIRECTION ( 'NONE',  ( 3.491481338843133355E-15, -1.227517819005651059E-16, 1.000000000000000000 ) ) ;
#80 = CC_DESIGN_DATE_AND_TIME_ASSIGNMENT ( #82, #154, ( #136 ) ) ;
#81 = CARTESIAN_POINT ( 'NONE',  ( 2.490102604378481715E-14, -4.151388316452684599E-16, 7.131937314617158741 ) ) ;
#82 = DATE_AND_TIME ( #104, #144 ) ;
#83 = AXIS2_PLACEMENT_3D ( 'NONE', #113, #12, #51 ) ;
#84 = VERTEX_POINT ( 'NONE', #69 ) ;
#85 = CC_DESIGN_PERSON_AND_ORGANIZATION_ASSIGNMENT ( #178, #155, ( #207 ) ) ;
#86 = EDGE_LOOP ( 'NONE', ( #129 ) ) ;
#87 = ORIENTED_EDGE ( 'NONE', *, *, #153, .T. ) ;
#88 = SECURITY_CLASSIFICATION ( '', '', #206 ) ;
#89 = EDGE_CURVE ( 'NONE', #75, #75, #182, .T. ) ;
#90 = DIRECTION ( 'NONE',  ( 4.275831445896958607E-31, 1.000000000000000000, 1.224646799147353207E-16 ) ) ;
#91 = APPROVAL_PERSON_ORGANIZATION ( #66, #127, #68 ) ;
#92 = DIRECTION ( 'NONE',  ( 3.491481338843133355E-15, -1.227517819005651059E-16, 1.000000000000000000 ) ) ;
#93 = FACE_OUTER_BOUND ( 'NONE', #106, .T. ) ;
#94 = PLANE ( 'NONE',  #95 ) ;
#95 = AXIS2_PLACEMENT_3D ( 'NONE', #184, #10, #90 ) ;
#96 = DIRECTION ( 'NONE',  ( 0.0000000000000000000, 1.000000000000000000, 0.0000000000000000000 ) ) ;
#97 = CALENDAR_DATE ( 2021, 16, 11 ) ;
#98 = CC_DESIGN_PERSON_AND_ORGANIZATION_ASSIGNMENT ( #20, #137, ( #207 ) ) ;
#99 =( NAMED_UNIT ( * ) SI_UNIT ( $, .STERADIAN. ) SOLID_ANGLE_UNIT ( ) );
#100 = CLOSED_SHELL ( 'NONE', ( #60, #26, #118, #172, #221 ) ) ;
#101 = LOCAL_TIME ( 16, 36, 12.00000000000000000, #34 ) ;
#102 = PERSON_AND_ORGANIZATION ( #211, #156 ) ;
#103 = DATE_AND_TIME ( #139, #176 ) ;
#104 = CALENDAR_DATE ( 2021, 16, 11 ) ;
#105 = APPROVAL_PERSON_ORGANIZATION ( #16, #15, #181 ) ;
#106 = EDGE_LOOP ( 'NONE', ( #124 ) ) ;
#107 = DIRECTION ( 'NONE',  ( 3.491481338843133355E-15, -1.227517819005651059E-16, 1.000000000000000000 ) ) ;
#108 = FACE_OUTER_BOUND ( 'NONE', #161, .T. ) ;
#109 = CC_DESIGN_APPROVAL ( #110, ( #136 ) ) ;
#110 = APPROVAL ( #4, 'UNSPECIFIED' ) ;
#111 = CARTESIAN_POINT ( 'NONE',  ( -6.428783337233474664E-31, -0.7499999999999993339, -1.841276728508475109E-16 ) ) ;
#112 = DESIGN_CONTEXT ( 'detailed design', #9, 'design' ) ;
#113 = CARTESIAN_POINT ( 'NONE',  ( 1.326762908760390423E-13, -4.653657836759941941E-15, 38.00000000000000000 ) ) ;
#114 = CARTESIAN_POINT ( 'NONE',  ( 1.326762908760390423E-13, 1.199999999999992406, 38.00000000000000000 ) ) ;
#115 = PERSON_AND_ORGANIZATION_ROLE ( 'classification_officer' ) ;
#116 = EDGE_CURVE ( 'NONE', #53, #53, #57, .T. ) ;
#117 = APPLICATION_CONTEXT ( 'configuration controlled 3d designs of mechanical parts and assemblies' ) ;
#118 = ADVANCED_FACE ( 'NONE', ( #131 ), #94, .F. ) ;
#119 = AXIS2_PLACEMENT_3D ( 'NONE', #43, #25, #8 ) ;
#120 = AXIS2_PLACEMENT_3D ( 'NONE', #134, #219, #63 ) ;
#121 = APPLICATION_PROTOCOL_DEFINITION ( 'international standard', 'config_control_design', 1994, #9 ) ;
#122 = APPLICATION_PROTOCOL_DEFINITION ( 'international standard', 'config_control_design', 1994, #117 ) ;
#123 = CIRCLE ( 'NONE', #213, 0.7499999999999993339 ) ;
#124 = ORIENTED_EDGE ( 'NONE', *, *, #153, .F. ) ;
#125 = COORDINATED_UNIVERSAL_TIME_OFFSET ( 1, 0, .AHEAD. ) ;
#126 = EDGE_LOOP ( 'NONE', ( #212 ) ) ;
#127 = APPROVAL ( #2, 'UNSPECIFIED' ) ;
#128 = ADVANCED_BREP_SHAPE_REPRESENTATION ( '966075', ( #218, #67, #141 ), #168 ) ;
#129 = ORIENTED_EDGE ( 'NONE', *, *, #210, .T. ) ;
#130 = AXIS2_PLACEMENT_3D ( 'NONE', #29, #31, #198 ) ;
#131 = FACE_OUTER_BOUND ( 'NONE', #142, .T. ) ;
#132 = DIRECTION ( 'NONE',  ( -3.491481338843133355E-15, 1.224646799147353207E-16, -1.000000000000000000 ) ) ;
#133 = PLANE ( 'NONE',  #28 ) ;
#134 = CARTESIAN_POINT ( 'NONE',  ( 1.309305502066174693E-14, 0.0000000000000000000, 3.749999999999999112 ) ) ;
#135 = DIRECTION ( 'NONE',  ( -4.285855558155653280E-31, -1.000000000000000000, -1.227517819005651059E-16 ) ) ;
#136 = PRODUCT_DEFINITION ( 'UNKNOWN', '', #207, #112 ) ;
#137 = PERSON_AND_ORGANIZATION_ROLE ( 'design_supplier' ) ;
#138 = DATE_AND_TIME ( #97, #101 ) ;
#139 = CALENDAR_DATE ( 2021, 16, 11 ) ;
#140 = ADVANCED_FACE ( 'NONE', ( #169 ), #183, .F. ) ;
#141 = AXIS2_PLACEMENT_3D ( 'NONE', #174, #37, #70 ) ;
#142 = EDGE_LOOP ( 'NONE', ( #162 ) ) ;
#143 = ADVANCED_FACE ( 'NONE', ( #108, #185 ), #167, .T. ) ;
#144 = LOCAL_TIME ( 16, 36, 12.00000000000000000, #157 ) ;
#145 = DATE_AND_TIME ( #46, #195 ) ;
#146 = EDGE_CURVE ( 'NONE', #205, #205, #123, .T. ) ;
#147 = DIRECTION ( 'NONE',  ( -4.285855558155652404E-31, -1.000000000000000000, -1.227517819005651552E-16 ) ) ;
#148 = CARTESIAN_POINT ( 'NONE',  ( -4.275811853558651348E-31, 1.499752910594655314E-32, -1.224641187678636516E-16 ) ) ;
#149 = FACE_OUTER_BOUND ( 'NONE', #214, .T. ) ;
#150 = UNCERTAINTY_MEASURE_WITH_UNIT (LENGTH_MEASURE( 1.000000000000000082E-05 ), #175, 'distance_accuracy_value', 'NONE');
#151 = FACE_OUTER_BOUND ( 'NONE', #166, .T. ) ;
#152 = DIRECTION ( 'NONE',  ( -4.275831445896958607E-31, -1.000000000000000000, -1.224646799147353207E-16 ) ) ;
#153 = EDGE_CURVE ( 'NONE', #14, #14, #216, .T. ) ;
#154 = DATE_TIME_ROLE ( 'creation_date' ) ;
#155 = PERSON_AND_ORGANIZATION_ROLE ( 'creator' ) ;
#156 = ORGANIZATION ( 'UNSPECIFIED', 'UNSPECIFIED', '' ) ;
#157 = COORDINATED_UNIVERSAL_TIME_OFFSET ( 1, 0, .AHEAD. ) ;
#158 = PERSON_AND_ORGANIZATION ( #211, #156 ) ;
#159 = APPROVAL_DATE_TIME ( #103, #127 ) ;
#160 = AXIS2_PLACEMENT_3D ( 'NONE', #200, #77, #147 ) ;
#161 = EDGE_LOOP ( 'NONE', ( #215 ) ) ;
#162 = ORIENTED_EDGE ( 'NONE', *, *, #36, .F. ) ;
#163 = AXIS2_PLACEMENT_3D ( 'NONE', #148, #217, #64 ) ;
#164 = ORIENTED_EDGE ( 'NONE', *, *, #210, .F. ) ;
#165 = PRODUCT_RELATED_PRODUCT_CATEGORY ( 'detail', '', ( #78 ) ) ;
#166 = EDGE_LOOP ( 'NONE', ( #180 ) ) ;
#167 = CYLINDRICAL_SURFACE ( 'NONE', #160, 0.7499999999999993339 ) ;
#168 =( GEOMETRIC_REPRESENTATION_CONTEXT ( 3 ) GLOBAL_UNCERTAINTY_ASSIGNED_CONTEXT ( ( #150 ) ) GLOBAL_UNIT_ASSIGNED_CONTEXT ( ( #175, #56, #99 ) ) REPRESENTATION_CONTEXT ( 'NONE', 'WORKASPACE' ) );
#169 = FACE_OUTER_BOUND ( 'NONE', #6, .T. ) ;
#170 = CYLINDRICAL_SURFACE ( 'NONE', #50, 1.499999999999994893 ) ;
#171 = DIRECTION ( 'NONE',  ( 3.491481338843133355E-15, -1.224646799147353207E-16, 1.000000000000000000 ) ) ;
#172 = ADVANCED_FACE ( 'NONE', ( #151, #149 ), #45, .F. ) ;
#173 = CARTESIAN_POINT ( 'NONE',  ( 1.309305502066174693E-14, -0.7499999999999997780, 3.749999999999999112 ) ) ;
#174 = CARTESIAN_POINT ( 'NONE',  ( 0.0000000000000000000, 0.0000000000000000000, 0.0000000000000000000 ) ) ;
#175 =( LENGTH_UNIT ( ) NAMED_UNIT ( * ) SI_UNIT ( .MILLI., .METRE. ) );
#176 = LOCAL_TIME ( 16, 36, 12.00000000000000000, #3 ) ;
#177 = APPROVAL_ROLE ( '' ) ;
#178 = PERSON_AND_ORGANIZATION ( #211, #156 ) ;
#179 = CC_DESIGN_PERSON_AND_ORGANIZATION_ASSIGNMENT ( #54, #115, ( #88 ) ) ;
#180 = ORIENTED_EDGE ( 'NONE', *, *, #146, .T. ) ;
#181 = APPROVAL_ROLE ( '' ) ;
#182 = CIRCLE ( 'NONE', #38, 0.7499999999999993339 ) ;
#183 = PLANE ( 'NONE',  #163 ) ;
#184 = CARTESIAN_POINT ( 'NONE',  ( 1.326762908760390423E-13, 8.998558695971053960E-33, 38.00000000000000000 ) ) ;
#185 = FACE_OUTER_BOUND ( 'NONE', #21, .T. ) ;
#186 = FACE_OUTER_BOUND ( 'NONE', #126, .T. ) ;
#187 = DIRECTION ( 'NONE',  ( 0.0000000000000000000, -1.000000000000000000, 0.0000000000000000000 ) ) ;
#188 = PERSON_AND_ORGANIZATION_ROLE ( 'design_owner' ) ;
#189 = APPROVAL_STATUS ( 'not_yet_approved' ) ;
#190 = AXIS2_PLACEMENT_3D ( 'NONE', #52, #132, #96 ) ;
#191 = PERSON_AND_ORGANIZATION ( #211, #156 ) ;
#192 = EDGE_LOOP ( 'NONE', ( #164 ) ) ;
#193 = PLANE ( 'NONE',  #119 ) ;
#194 = CIRCLE ( 'NONE', #130, 1.199999999999996847 ) ;
#195 = LOCAL_TIME ( 16, 36, 12.00000000000000000, #125 ) ;
#196 = APPROVAL_PERSON_ORGANIZATION ( #102, #110, #177 ) ;
#197 = FACE_OUTER_BOUND ( 'NONE', #192, .T. ) ;
#198 = DIRECTION ( 'NONE',  ( 0.0000000000000000000, 1.000000000000000000, 0.0000000000000000000 ) ) ;
#199 = CC_DESIGN_PERSON_AND_ORGANIZATION_ASSIGNMENT ( #158, #55, ( #136 ) ) ;
#200 = CARTESIAN_POINT ( 'NONE',  ( -6.413731847436034514E-31, 0.0000000000000000000, -1.836965810494968570E-16 ) ) ;
#201 = CARTESIAN_POINT ( 'NONE',  ( 1.309305502066175008E-14, 1.124819836996387048E-32, 3.750000000000000000 ) ) ;
#202 = CC_DESIGN_APPROVAL ( #127, ( #207 ) ) ;
#203 = CC_DESIGN_DATE_AND_TIME_ASSIGNMENT ( #138, #208, ( #88 ) ) ;
#204 = CARTESIAN_POINT ( 'NONE',  ( 1.309305502066174693E-14, -4.603191821271190607E-16, 3.749999999999999112 ) ) ;
#205 = VERTEX_POINT ( 'NONE', #33 ) ;
#206 = SECURITY_CLASSIFICATION_LEVEL ( 'unclassified' ) ;
#207 = PRODUCT_DEFINITION_FORMATION_WITH_SPECIFIED_SOURCE ( 'ANY', '', #78, .NOT_KNOWN. ) ;
#208 = DATE_TIME_ROLE ( 'classification_date' ) ;
#209 = CARTESIAN_POINT ( 'NONE',  ( 2.490102604378481715E-14, 1.499999999999994449, 7.131937314617158741 ) ) ;
#210 = EDGE_CURVE ( 'NONE', #84, #84, #74, .T. ) ;
#211 = PERSON ( 'UNSPECIFIED', 'UNSPECIFIED', 'UNSPECIFIED', ('UNSPECIFIED'), ('UNSPECIFIED'), ('UNSPECIFIED') ) ;
#212 = ORIENTED_EDGE ( 'NONE', *, *, #146, .F. ) ;
#213 = AXIS2_PLACEMENT_3D ( 'NONE', #204, #79, #65 ) ;
#214 = EDGE_LOOP ( 'NONE', ( #87 ) ) ;
#215 = ORIENTED_EDGE ( 'NONE', *, *, #116, .T. ) ;
#216 = CIRCLE ( 'NONE', #17, 1.499999999999994893 ) ;
#217 = DIRECTION ( 'NONE',  ( 3.491481338843133355E-15, -1.224646799147353207E-16, 1.000000000000000000 ) ) ;
#218 = MANIFOLD_SOLID_BREP ( 'Corps-Déplacer/Copier1[1]', #100 ) ;
#219 = DIRECTION ( 'NONE',  ( 3.491481338843133355E-15, -1.227517819005651059E-16, 1.000000000000000000 ) ) ;
#220 = DIRECTION ( 'NONE',  ( -3.491481338843133355E-15, 1.224646799147353207E-16, -1.000000000000000000 ) ) ;
#221 = ADVANCED_FACE ( 'NONE', ( #186 ), #133, .F. ) ;
#222 = DIRECTION ( 'NONE',  ( 4.275831445896958607E-31, 1.000000000000000000, 1.224646799147353207E-16 ) ) ;
#223 = VERTEX_POINT ( 'NONE', #114 ) ;
ENDSEC;
END-ISO-10303-21;
