ISO-10303-21;
HEADER;
FILE_DESCRIPTION (( 'STEP AP203' ),
    '1' );
FILE_NAME ('966074.step',
    '2021-11-16T15:36:12',
    ( '' ),
    ( '' ),
    'SwSTEP 2.0',
    'SolidWorks 2019',
    '' );
FILE_SCHEMA (( 'CONFIG_CONTROL_DESIGN' ));
ENDSEC;

DATA;
#1 = VERTEX_POINT ( 'NONE', #150 ) ;
#2 = CC_DESIGN_PERSON_AND_ORGANIZATION_ASSIGNMENT ( #14, #31, ( #162 ) ) ;
#3 = AXIS2_PLACEMENT_3D ( 'NONE', #149, #180, #32 ) ;
#4 = DIRECTION ( 'NONE',  ( 1.000000000000000000, 0.0000000000000000000, 0.0000000000000000000 ) ) ;
#5 = DIRECTION ( 'NONE',  ( -4.275831445896958607E-31, -1.000000000000000000, -1.224646799147353207E-16 ) ) ;
#6 = PERSON_AND_ORGANIZATION_ROLE ( 'creator' ) ;
#7 = PERSON_AND_ORGANIZATION_ROLE ( 'design_supplier' ) ;
#8 = CIRCLE ( 'NONE', #174, 0.6999999999999996225 ) ;
#9 = CC_DESIGN_APPROVAL ( #93, ( #139 ) ) ;
#10 = LOCAL_TIME ( 16, 36, 12.00000000000000000, #126 ) ;
#11 = ORIENTED_EDGE ( 'NONE', *, *, #102, .T. ) ;
#12 = ADVANCED_FACE ( 'NONE', ( #15 ), #147, .F. ) ;
#13 = EDGE_LOOP ( 'NONE', ( #212 ) ) ;
#14 = PERSON_AND_ORGANIZATION ( #191, #77 ) ;
#15 = FACE_OUTER_BOUND ( 'NONE', #45, .T. ) ;
#16 = APPLICATION_CONTEXT ( 'configuration controlled 3d designs of mechanical parts and assemblies' ) ;
#17 = PLANE ( 'NONE',  #209 ) ;
#18 = COORDINATED_UNIVERSAL_TIME_OFFSET ( 1, 0, .AHEAD. ) ;
#19 = FACE_OUTER_BOUND ( 'NONE', #78, .T. ) ;
#20 = DATE_TIME_ROLE ( 'classification_date' ) ;
#21 = CARTESIAN_POINT ( 'NONE',  ( 2.439539614137117384E-14, -4.280500899552853497E-16, 6.987119154832527101 ) ) ;
#22 = EDGE_CURVE ( 'NONE', #50, #50, #220, .T. ) ;
#23 = CARTESIAN_POINT ( 'NONE',  ( 2.439539614137117384E-14, 1.499999999999994449, 6.987119154832527101 ) ) ;
#24 =( LENGTH_UNIT ( ) NAMED_UNIT ( * ) SI_UNIT ( .MILLI., .METRE. ) );
#25 = DIRECTION ( 'NONE',  ( 3.491481338843133355E-15, -1.227517819005651059E-16, 1.000000000000000000 ) ) ;
#26 = COORDINATED_UNIVERSAL_TIME_OFFSET ( 1, 0, .AHEAD. ) ;
#27 = CC_DESIGN_DATE_AND_TIME_ASSIGNMENT ( #56, #41, ( #139 ) ) ;
#28 = PERSON_AND_ORGANIZATION ( #191, #77 ) ;
#29 = ADVANCED_BREP_SHAPE_REPRESENTATION ( '966074', ( #60, #190, #175 ), #30 ) ;
#30 =( GEOMETRIC_REPRESENTATION_CONTEXT ( 3 ) GLOBAL_UNCERTAINTY_ASSIGNED_CONTEXT ( ( #148 ) ) GLOBAL_UNIT_ASSIGNED_CONTEXT ( ( #24, #70, #129 ) ) REPRESENTATION_CONTEXT ( 'NONE', 'WORKASPACE' ) );
#31 = PERSON_AND_ORGANIZATION_ROLE ( 'classification_officer' ) ;
#32 = DIRECTION ( 'NONE',  ( -4.285855558155652404E-31, -1.000000000000000000, -1.227517819005651305E-16 ) ) ;
#33 = CALENDAR_DATE ( 2021, 16, 11 ) ;
#34 = DIRECTION ( 'NONE',  ( 0.0000000000000000000, -1.000000000000000000, 0.0000000000000000000 ) ) ;
#35 = CIRCLE ( 'NONE', #111, 0.6999999999999996225 ) ;
#36 = DIRECTION ( 'NONE',  ( 3.491481338843133355E-15, -1.227517819005651059E-16, 1.000000000000000000 ) ) ;
#37 = FACE_OUTER_BOUND ( 'NONE', #165, .T. ) ;
#38 = APPROVAL_ROLE ( '' ) ;
#39 = APPROVAL ( #167, 'UNSPECIFIED' ) ;
#40 = APPROVAL_PERSON_ORGANIZATION ( #164, #39, #128 ) ;
#41 = DATE_TIME_ROLE ( 'creation_date' ) ;
#42 = EDGE_CURVE ( 'NONE', #115, #115, #58, .T. ) ;
#43 = PRODUCT ( '966074', '966074', '', ( #118 ) ) ;
#44 = EDGE_LOOP ( 'NONE', ( #61 ) ) ;
#45 = EDGE_LOOP ( 'NONE', ( #125 ) ) ;
#46 = CARTESIAN_POINT ( 'NONE',  ( -6.000197781417912489E-31, -0.6999999999999996225, -1.718524946607910841E-16 ) ) ;
#47 = CONICAL_SURFACE ( 'NONE', #214, 1.199999999999996847, 0.7853981633974453924 ) ;
#48 = DATE_AND_TIME ( #94, #10 ) ;
#49 = DIRECTION ( 'NONE',  ( -4.285855558155654155E-31, -1.000000000000000000, -1.227517819005651305E-16 ) ) ;
#50 = VERTEX_POINT ( 'NONE', #202 ) ;
#51 = ADVANCED_FACE ( 'NONE', ( #69 ), #17, .F. ) ;
#52 = CARTESIAN_POINT ( 'NONE',  ( 1.222018468595096674E-14, 1.124819836996387048E-32, 3.500000000000000000 ) ) ;
#53 = DIRECTION ( 'NONE',  ( 0.0000000000000000000, -1.000000000000000000, 0.0000000000000000000 ) ) ;
#54 = COORDINATED_UNIVERSAL_TIME_OFFSET ( 1, 0, .AHEAD. ) ;
#55 = DIRECTION ( 'NONE',  ( 4.275831445896958607E-31, 1.000000000000000000, 1.224646799147353207E-16 ) ) ;
#56 = DATE_AND_TIME ( #122, #198 ) ;
#57 = APPROVAL_DATE_TIME ( #208, #93 ) ;
#58 = CIRCLE ( 'NONE', #83, 0.6999999999999996225 ) ;
#59 = ADVANCED_FACE ( 'NONE', ( #117 ), #206, .F. ) ;
#60 = MANIFOLD_SOLID_BREP ( 'Corps-Déplacer/Copier1[1]', #184 ) ;
#61 = ORIENTED_EDGE ( 'NONE', *, *, #195, .T. ) ;
#62 = EDGE_LOOP ( 'NONE', ( #95 ) ) ;
#63 = CARTESIAN_POINT ( 'NONE',  ( -4.275811853558651348E-31, 1.499752910594655314E-32, -1.224641187678636516E-16 ) ) ;
#64 = DESIGN_CONTEXT ( 'detailed design', #96, 'design' ) ;
#65 = DIRECTION ( 'NONE',  ( 3.491481338843133355E-15, -1.227517819005651059E-16, 1.000000000000000000 ) ) ;
#66 = LOCAL_TIME ( 16, 36, 12.00000000000000000, #18 ) ;
#67 = CARTESIAN_POINT ( 'NONE',  ( 1.326762908760390423E-13, -4.653657836759941941E-15, 38.00000000000000000 ) ) ;
#68 = APPROVAL_DATE_TIME ( #171, #39 ) ;
#69 = FACE_OUTER_BOUND ( 'NONE', #81, .T. ) ;
#70 =( NAMED_UNIT ( * ) PLANE_ANGLE_UNIT ( ) SI_UNIT ( $, .RADIAN. ) );
#71 = DIRECTION ( 'NONE',  ( 0.0000000000000000000, 1.000000000000000000, 0.0000000000000000000 ) ) ;
#72 = APPROVAL_STATUS ( 'not_yet_approved' ) ;
#73 = FACE_OUTER_BOUND ( 'NONE', #62, .T. ) ;
#74 = APPROVAL_ROLE ( '' ) ;
#75 = APPLICATION_PROTOCOL_DEFINITION ( 'international standard', 'config_control_design', 1994, #96 ) ;
#76 = ADVANCED_FACE ( 'NONE', ( #183, #151 ), #200, .T. ) ;
#77 = ORGANIZATION ( 'UNSPECIFIED', 'UNSPECIFIED', '' ) ;
#78 = EDGE_LOOP ( 'NONE', ( #11 ) ) ;
#79 = ORIENTED_EDGE ( 'NONE', *, *, #22, .T. ) ;
#80 = CC_DESIGN_PERSON_AND_ORGANIZATION_ASSIGNMENT ( #104, #141, ( #43 ) ) ;
#81 = EDGE_LOOP ( 'NONE', ( #110 ) ) ;
#82 = DIRECTION ( 'NONE',  ( -3.491481338843133355E-15, 1.224646799147353207E-16, -1.000000000000000000 ) ) ;
#83 = AXIS2_PLACEMENT_3D ( 'NONE', #204, #25, #53 ) ;
#84 = DIRECTION ( 'NONE',  ( 3.491481338843133355E-15, -1.227517819005651059E-16, 1.000000000000000000 ) ) ;
#85 = DIRECTION ( 'NONE',  ( 3.491481338843133355E-15, -1.224646799147353207E-16, 1.000000000000000000 ) ) ;
#86 = VERTEX_POINT ( 'NONE', #154 ) ;
#87 = DIRECTION ( 'NONE',  ( 0.0000000000000000000, 1.000000000000000000, 0.0000000000000000000 ) ) ;
#88 = APPROVAL_DATE_TIME ( #176, #152 ) ;
#89 = CC_DESIGN_PERSON_AND_ORGANIZATION_ASSIGNMENT ( #119, #7, ( #106 ) ) ;
#90 = CC_DESIGN_SECURITY_CLASSIFICATION ( #162, ( #106 ) ) ;
#91 = ORIENTED_EDGE ( 'NONE', *, *, #112, .T. ) ;
#92 = EDGE_LOOP ( 'NONE', ( #194 ) ) ;
#93 = APPROVAL ( #187, 'UNSPECIFIED' ) ;
#94 = CALENDAR_DATE ( 2021, 16, 11 ) ;
#95 = ORIENTED_EDGE ( 'NONE', *, *, #135, .T. ) ;
#96 = APPLICATION_CONTEXT ( 'configuration controlled 3d designs of mechanical parts and assemblies' ) ;
#97 = CYLINDRICAL_SURFACE ( 'NONE', #161, 1.499999999999994893 ) ;
#98 = FACE_OUTER_BOUND ( 'NONE', #92, .T. ) ;
#99 = AXIS2_PLACEMENT_3D ( 'NONE', #216, #132, #71 ) ;
#100 = CARTESIAN_POINT ( 'NONE',  ( 1.326762908760390423E-13, 8.998558695971053960E-33, 38.00000000000000000 ) ) ;
#101 = VERTEX_POINT ( 'NONE', #23 ) ;
#102 = EDGE_CURVE ( 'NONE', #101, #101, #120, .T. ) ;
#103 = CARTESIAN_POINT ( 'NONE',  ( 1.222018468595096359E-14, 0.0000000000000000000, 3.499999999999999112 ) ) ;
#104 = PERSON_AND_ORGANIZATION ( #191, #77 ) ;
#105 = LOCAL_TIME ( 16, 36, 12.00000000000000000, #158 ) ;
#106 = PRODUCT_DEFINITION_FORMATION_WITH_SPECIFIED_SOURCE ( 'ANY', '', #43, .NOT_KNOWN. ) ;
#107 = PERSON_AND_ORGANIZATION ( #191, #77 ) ;
#108 = CIRCLE ( 'NONE', #143, 1.499999999999996669 ) ;
#109 = AXIS2_PLACEMENT_3D ( 'NONE', #170, #85, #5 ) ;
#110 = ORIENTED_EDGE ( 'NONE', *, *, #22, .F. ) ;
#111 = AXIS2_PLACEMENT_3D ( 'NONE', #168, #36, #34 ) ;
#112 = EDGE_CURVE ( 'NONE', #86, #86, #35, .T. ) ;
#113 = FACE_OUTER_BOUND ( 'NONE', #144, .T. ) ;
#114 = DIRECTION ( 'NONE',  ( -4.275831445896958607E-31, -1.000000000000000000, -1.224646799147353207E-16 ) ) ;
#115 = VERTEX_POINT ( 'NONE', #185 ) ;
#116 = ADVANCED_FACE ( 'NONE', ( #37 ), #136, .T. ) ;
#117 = FACE_OUTER_BOUND ( 'NONE', #13, .T. ) ;
#118 = MECHANICAL_CONTEXT ( 'NONE', #16, 'mechanical' ) ;
#119 = PERSON_AND_ORGANIZATION ( #191, #77 ) ;
#120 = CIRCLE ( 'NONE', #179, 1.499999999999994893 ) ;
#121 = LOCAL_TIME ( 16, 36, 12.00000000000000000, #26 ) ;
#122 = CALENDAR_DATE ( 2021, 16, 11 ) ;
#123 = AXIS2_PLACEMENT_3D ( 'NONE', #103, #84, #173 ) ;
#124 = PRODUCT_DEFINITION_SHAPE ( 'NONE', 'NONE',  #139 ) ;
#125 = ORIENTED_EDGE ( 'NONE', *, *, #195, .F. ) ;
#126 = COORDINATED_UNIVERSAL_TIME_OFFSET ( 1, 0, .AHEAD. ) ;
#127 = DIRECTION ( 'NONE',  ( -4.275831445896958607E-31, -1.000000000000000000, -1.224646799147353207E-16 ) ) ;
#128 = APPROVAL_ROLE ( '' ) ;
#129 =( NAMED_UNIT ( * ) SI_UNIT ( $, .STERADIAN. ) SOLID_ANGLE_UNIT ( ) );
#130 = EDGE_LOOP ( 'NONE', ( #160 ) ) ;
#131 = APPROVAL_PERSON_ORGANIZATION ( #107, #152, #38 ) ;
#132 = DIRECTION ( 'NONE',  ( -3.491481338843133355E-15, 1.224646799147353207E-16, -1.000000000000000000 ) ) ;
#133 = DIRECTION ( 'NONE',  ( -3.491481338843133355E-15, 1.224646799147353207E-16, -1.000000000000000000 ) ) ;
#134 = CARTESIAN_POINT ( 'NONE',  ( 1.316288464743861212E-13, -4.616918432785521081E-15, 37.69999999999999574 ) ) ;
#135 = EDGE_CURVE ( 'NONE', #1, #1, #108, .T. ) ;
#136 = PLANE ( 'NONE',  #109 ) ;
#137 = CARTESIAN_POINT ( 'NONE',  ( 0.0000000000000000000, 0.0000000000000000000, 0.0000000000000000000 ) ) ;
#138 = DIRECTION ( 'NONE',  ( 3.491481338843133355E-15, -1.224646799147353207E-16, 1.000000000000000000 ) ) ;
#139 = PRODUCT_DEFINITION ( 'UNKNOWN', '', #106, #64 ) ;
#140 = CALENDAR_DATE ( 2021, 16, 11 ) ;
#141 = PERSON_AND_ORGANIZATION_ROLE ( 'design_owner' ) ;
#142 = CC_DESIGN_DATE_AND_TIME_ASSIGNMENT ( #48, #20, ( #162 ) ) ;
#143 = AXIS2_PLACEMENT_3D ( 'NONE', #134, #82, #87 ) ;
#144 = EDGE_LOOP ( 'NONE', ( #91 ) ) ;
#145 = CC_DESIGN_PERSON_AND_ORGANIZATION_ASSIGNMENT ( #207, #205, ( #139 ) ) ;
#146 = EDGE_LOOP ( 'NONE', ( #79 ) ) ;
#147 = PLANE ( 'NONE',  #193 ) ;
#148 = UNCERTAINTY_MEASURE_WITH_UNIT (LENGTH_MEASURE( 1.000000000000000082E-05 ), #24, 'distance_accuracy_value', 'NONE');
#149 = CARTESIAN_POINT ( 'NONE',  ( -6.413731847436034514E-31, 0.0000000000000000000, -1.836965810494968570E-16 ) ) ;
#150 = CARTESIAN_POINT ( 'NONE',  ( 1.316288464743861212E-13, 1.499999999999992228, 37.69999999999999574 ) ) ;
#151 = FACE_OUTER_BOUND ( 'NONE', #130, .T. ) ;
#152 = APPROVAL ( #72, 'UNSPECIFIED' ) ;
#153 = CARTESIAN_POINT ( 'NONE',  ( 0.0000000000000000000, 0.0000000000000000000, 0.0000000000000000000 ) ) ;
#154 = CARTESIAN_POINT ( 'NONE',  ( 1.222018468595096359E-14, -0.7000000000000000666, 3.499999999999999112 ) ) ;
#155 = DIRECTION ( 'NONE',  ( 0.0000000000000000000, 0.0000000000000000000, 1.000000000000000000 ) ) ;
#156 = DIRECTION ( 'NONE',  ( 4.275831445896958607E-31, 1.000000000000000000, 1.224646799147353207E-16 ) ) ;
#157 = PERSON_AND_ORGANIZATION ( #191, #77 ) ;
#158 = COORDINATED_UNIVERSAL_TIME_OFFSET ( 1, 0, .AHEAD. ) ;
#159 = TOROIDAL_SURFACE ( 'NONE', #123, 8.699999999999999289, 8.000000000000000000 ) ;
#160 = ORIENTED_EDGE ( 'NONE', *, *, #42, .F. ) ;
#161 = AXIS2_PLACEMENT_3D ( 'NONE', #153, #223, #156 ) ;
#162 = SECURITY_CLASSIFICATION ( '', '', #199 ) ;
#163 = ORIENTED_EDGE ( 'NONE', *, *, #102, .F. ) ;
#164 = PERSON_AND_ORGANIZATION ( #191, #77 ) ;
#165 = EDGE_LOOP ( 'NONE', ( #178 ) ) ;
#166 = CARTESIAN_POINT ( 'NONE',  ( -3.000098890708956245E-31, -1.200148268103259221E-32, -8.592624733039554206E-17 ) ) ;
#167 = APPROVAL_STATUS ( 'not_yet_approved' ) ;
#168 = CARTESIAN_POINT ( 'NONE',  ( 1.222018468595096359E-14, -4.296312366519777473E-16, 3.499999999999999112 ) ) ;
#169 = VERTEX_POINT ( 'NONE', #46 ) ;
#170 = CARTESIAN_POINT ( 'NONE',  ( 1.222018468595096674E-14, 1.124819836996387048E-32, 3.500000000000000000 ) ) ;
#171 = DATE_AND_TIME ( #33, #66 ) ;
#172 = DIRECTION ( 'NONE',  ( -3.491481338843133355E-15, 1.224646799147353207E-16, -1.000000000000000000 ) ) ;
#173 = DIRECTION ( 'NONE',  ( -4.365362427626490434E-31, -1.000000000000000000, -1.227517819005651059E-16 ) ) ;
#174 = AXIS2_PLACEMENT_3D ( 'NONE', #166, #65, #49 ) ;
#175 = AXIS2_PLACEMENT_3D ( 'NONE', #137, #155, #4 ) ;
#176 = DATE_AND_TIME ( #189, #121 ) ;
#177 = PRODUCT_RELATED_PRODUCT_CATEGORY ( 'detail', '', ( #43 ) ) ;
#178 = ORIENTED_EDGE ( 'NONE', *, *, #42, .T. ) ;
#179 = AXIS2_PLACEMENT_3D ( 'NONE', #21, #186, #181 ) ;
#180 = DIRECTION ( 'NONE',  ( 3.491481338843133355E-15, -1.227517819005651059E-16, 1.000000000000000000 ) ) ;
#181 = DIRECTION ( 'NONE',  ( 0.0000000000000000000, 1.000000000000000000, 0.0000000000000000000 ) ) ;
#182 = ADVANCED_FACE ( 'NONE', ( #73, #219 ), #97, .T. ) ;
#183 = FACE_OUTER_BOUND ( 'NONE', #44, .T. ) ;
#184 = CLOSED_SHELL ( 'NONE', ( #182, #217, #51, #210, #59 ) ) ;
#185 = CARTESIAN_POINT ( 'NONE',  ( 1.222018468595096359E-14, -0.7000000000000000666, 3.499999999999999112 ) ) ;
#186 = DIRECTION ( 'NONE',  ( -3.491481338843133355E-15, 1.227517819005651059E-16, -1.000000000000000000 ) ) ;
#187 = APPROVAL_STATUS ( 'not_yet_approved' ) ;
#188 = CC_DESIGN_APPROVAL ( #39, ( #162 ) ) ;
#189 = CALENDAR_DATE ( 2021, 16, 11 ) ;
#190 = MANIFOLD_SOLID_BREP ( 'Corps-Déplacer/Copier1[2]', #211 ) ;
#191 = PERSON ( 'UNSPECIFIED', 'UNSPECIFIED', 'UNSPECIFIED', ('UNSPECIFIED'), ('UNSPECIFIED'), ('UNSPECIFIED') ) ;
#192 = EDGE_LOOP ( 'NONE', ( #163 ) ) ;
#193 = AXIS2_PLACEMENT_3D ( 'NONE', #63, #215, #127 ) ;
#194 = ORIENTED_EDGE ( 'NONE', *, *, #135, .F. ) ;
#195 = EDGE_CURVE ( 'NONE', #169, #169, #8, .T. ) ;
#196 = SHAPE_DEFINITION_REPRESENTATION ( #124, #29 ) ;
#197 = APPROVAL_PERSON_ORGANIZATION ( #28, #93, #74 ) ;
#198 = LOCAL_TIME ( 16, 36, 12.00000000000000000, #54 ) ;
#199 = SECURITY_CLASSIFICATION_LEVEL ( 'unclassified' ) ;
#200 = CYLINDRICAL_SURFACE ( 'NONE', #3, 0.6999999999999996225 ) ;
#201 = DIRECTION ( 'NONE',  ( 0.0000000000000000000, 1.000000000000000000, 0.0000000000000000000 ) ) ;
#202 = CARTESIAN_POINT ( 'NONE',  ( 1.326762908760390423E-13, 1.199999999999992406, 38.00000000000000000 ) ) ;
#203 = AXIS2_PLACEMENT_3D ( 'NONE', #52, #138, #114 ) ;
#204 = CARTESIAN_POINT ( 'NONE',  ( 1.222018468595096359E-14, -4.296312366519777473E-16, 3.499999999999999112 ) ) ;
#205 = PERSON_AND_ORGANIZATION_ROLE ( 'creator' ) ;
#206 = PLANE ( 'NONE',  #203 ) ;
#207 = PERSON_AND_ORGANIZATION ( #191, #77 ) ;
#208 = DATE_AND_TIME ( #140, #105 ) ;
#209 = AXIS2_PLACEMENT_3D ( 'NONE', #100, #172, #55 ) ;
#210 = ADVANCED_FACE ( 'NONE', ( #113, #19 ), #159, .F. ) ;
#211 = CLOSED_SHELL ( 'NONE', ( #116, #76, #12 ) ) ;
#212 = ORIENTED_EDGE ( 'NONE', *, *, #112, .F. ) ;
#213 = CC_DESIGN_PERSON_AND_ORGANIZATION_ASSIGNMENT ( #157, #6, ( #106 ) ) ;
#214 = AXIS2_PLACEMENT_3D ( 'NONE', #67, #133, #201 ) ;
#215 = DIRECTION ( 'NONE',  ( 3.491481338843133355E-15, -1.224646799147353207E-16, 1.000000000000000000 ) ) ;
#216 = CARTESIAN_POINT ( 'NONE',  ( 1.326762908760390423E-13, -4.653657836759941941E-15, 38.00000000000000000 ) ) ;
#217 = ADVANCED_FACE ( 'NONE', ( #98, #222 ), #47, .T. ) ;
#218 = APPLICATION_PROTOCOL_DEFINITION ( 'international standard', 'config_control_design', 1994, #16 ) ;
#219 = FACE_OUTER_BOUND ( 'NONE', #192, .T. ) ;
#220 = CIRCLE ( 'NONE', #99, 1.199999999999996847 ) ;
#221 = CC_DESIGN_APPROVAL ( #152, ( #106 ) ) ;
#222 = FACE_BOUND ( 'NONE', #146, .T. ) ;
#223 = DIRECTION ( 'NONE',  ( -3.491481338843133355E-15, 1.224646799147353207E-16, -1.000000000000000000 ) ) ;
ENDSEC;
END-ISO-10303-21;
