ISO-10303-21;
HEADER;
FILE_DESCRIPTION (( 'STEP AP203' ),
    '1' );
FILE_NAME ('966073.step',
    '2021-11-16T15:36:11',
    ( '' ),
    ( '' ),
    'SwSTEP 2.0',
    'SolidWorks 2019',
    '' );
FILE_SCHEMA (( 'CONFIG_CONTROL_DESIGN' ));
ENDSEC;

DATA;
#1 = CARTESIAN_POINT ( 'NONE',  ( 0.0000000000000000000, 0.0000000000000000000, 0.0000000000000000000 ) ) ;
#2 = APPROVAL_PERSON_ORGANIZATION ( #17, #198, #128 ) ;
#3 = ORIENTED_EDGE ( 'NONE', *, *, #90, .F. ) ;
#4 = AXIS2_PLACEMENT_3D ( 'NONE', #86, #99, #221 ) ;
#5 = EDGE_LOOP ( 'NONE', ( #161 ) ) ;
#6 = PRODUCT ( '966073', '966073', '', ( #111 ) ) ;
#7 = FACE_BOUND ( 'NONE', #130, .T. ) ;
#8 = EDGE_LOOP ( 'NONE', ( #212 ) ) ;
#9 = FACE_OUTER_BOUND ( 'NONE', #187, .T. ) ;
#10 = DIRECTION ( 'NONE',  ( 0.0000000000000000000, -1.000000000000000000, 0.0000000000000000000 ) ) ;
#11 = CC_DESIGN_DATE_AND_TIME_ASSIGNMENT ( #177, #36, ( #38 ) ) ;
#12 = DIRECTION ( 'NONE',  ( -4.275831445896958607E-31, -1.000000000000000000, -1.224646799147353207E-16 ) ) ;
#13 = FACE_OUTER_BOUND ( 'NONE', #115, .T. ) ;
#14 = VERTEX_POINT ( 'NONE', #203 ) ;
#15 = ADVANCED_FACE ( 'NONE', ( #164, #7 ), #116, .T. ) ;
#16 = PERSON_AND_ORGANIZATION ( #84, #47 ) ;
#17 = PERSON_AND_ORGANIZATION ( #84, #47 ) ;
#18 = CIRCLE ( 'NONE', #97, 0.6500000000000000222 ) ;
#19 = PERSON_AND_ORGANIZATION_ROLE ( 'design_supplier' ) ;
#20 = COORDINATED_UNIVERSAL_TIME_OFFSET ( 1, 0, .AHEAD. ) ;
#21 = PERSON_AND_ORGANIZATION_ROLE ( 'design_owner' ) ;
#22 = AXIS2_PLACEMENT_3D ( 'NONE', #1, #76, #142 ) ;
#23 = CLOSED_SHELL ( 'NONE', ( #77, #73, #96 ) ) ;
#24 = CALENDAR_DATE ( 2021, 16, 11 ) ;
#25 = EDGE_LOOP ( 'NONE', ( #132 ) ) ;
#26 = AXIS2_PLACEMENT_3D ( 'NONE', #153, #103, #105 ) ;
#27 = CARTESIAN_POINT ( 'NONE',  ( -6.413731847436034514E-31, 0.0000000000000000000, -1.836965810494968570E-16 ) ) ;
#28 = AXIS2_PLACEMENT_3D ( 'NONE', #101, #67, #30 ) ;
#29 = PRODUCT_DEFINITION_FORMATION_WITH_SPECIFIED_SOURCE ( 'ANY', '', #6, .NOT_KNOWN. ) ;
#30 = DIRECTION ( 'NONE',  ( 0.0000000000000000000, -1.000000000000000000, 0.0000000000000000000 ) ) ;
#31 = PLANE ( 'NONE',  #199 ) ;
#32 = PLANE ( 'NONE',  #167 ) ;
#33 = FACE_OUTER_BOUND ( 'NONE', #8, .T. ) ;
#34 = LOCAL_TIME ( 16, 36, 11.00000000000000000, #141 ) ;
#35 = SECURITY_CLASSIFICATION_LEVEL ( 'unclassified' ) ;
#36 = DATE_TIME_ROLE ( 'creation_date' ) ;
#37 = PERSON_AND_ORGANIZATION ( #84, #47 ) ;
#38 = PRODUCT_DEFINITION ( 'UNKNOWN', '', #29, #52 ) ;
#39 = APPLICATION_PROTOCOL_DEFINITION ( 'international standard', 'config_control_design', 1994, #162 ) ;
#40 = CC_DESIGN_PERSON_AND_ORGANIZATION_ASSIGNMENT ( #37, #110, ( #38 ) ) ;
#41 = AXIS2_PLACEMENT_3D ( 'NONE', #82, #149, #214 ) ;
#42 = CC_DESIGN_APPROVAL ( #152, ( #29 ) ) ;
#43 = ADVANCED_BREP_SHAPE_REPRESENTATION ( '966073', ( #64, #207, #22 ), #133 ) ;
#44 = DIRECTION ( 'NONE',  ( 3.491481338843133355E-15, -1.224646799147353207E-16, 1.000000000000000000 ) ) ;
#45 = ADVANCED_FACE ( 'NONE', ( #61 ), #200, .F. ) ;
#46 = CYLINDRICAL_SURFACE ( 'NONE', #196, 0.6499999999999998002 ) ;
#47 = ORGANIZATION ( 'UNSPECIFIED', 'UNSPECIFIED', '' ) ;
#48 = DIRECTION ( 'NONE',  ( -4.285855558155652404E-31, -1.000000000000000000, -1.227517819005651059E-16 ) ) ;
#49 = FACE_OUTER_BOUND ( 'NONE', #25, .T. ) ;
#50 = CARTESIAN_POINT ( 'NONE',  ( 1.326762908760390423E-13, 8.998558695971053960E-33, 38.00000000000000000 ) ) ;
#51 = COORDINATED_UNIVERSAL_TIME_OFFSET ( 1, 0, .AHEAD. ) ;
#52 = DESIGN_CONTEXT ( 'detailed design', #178, 'design' ) ;
#53 = LOCAL_TIME ( 16, 36, 11.00000000000000000, #183 ) ;
#54 = APPROVAL_DATE_TIME ( #144, #129 ) ;
#55 = APPROVAL_STATUS ( 'not_yet_approved' ) ;
#56 = AXIS2_PLACEMENT_3D ( 'NONE', #218, #166, #48 ) ;
#57 = CC_DESIGN_DATE_AND_TIME_ASSIGNMENT ( #109, #175, ( #216 ) ) ;
#58 = ORIENTED_EDGE ( 'NONE', *, *, #185, .T. ) ;
#59 = CIRCLE ( 'NONE', #56, 0.6499999999999995781 ) ;
#60 = ORIENTED_EDGE ( 'NONE', *, *, #107, .F. ) ;
#61 = FACE_OUTER_BOUND ( 'NONE', #114, .T. ) ;
#62 = AXIS2_PLACEMENT_3D ( 'NONE', #120, #44, #102 ) ;
#63 = VERTEX_POINT ( 'NONE', #169 ) ;
#64 = MANIFOLD_SOLID_BREP ( 'Corps-Déplacer/Copier1[1]', #121 ) ;
#65 = PRODUCT_RELATED_PRODUCT_CATEGORY ( 'detail', '', ( #6 ) ) ;
#66 = DIRECTION ( 'NONE',  ( -4.285855558155653280E-31, -1.000000000000000000, -1.227517819005651305E-16 ) ) ;
#67 = DIRECTION ( 'NONE',  ( 3.491481338843133355E-15, -1.227517819005651059E-16, 1.000000000000000000 ) ) ;
#68 = LOCAL_TIME ( 16, 36, 11.00000000000000000, #89 ) ;
#69 = DIRECTION ( 'NONE',  ( 3.491481338843133355E-15, -1.227517819005651059E-16, 1.000000000000000000 ) ) ;
#70 = PLANE ( 'NONE',  #62 ) ;
#71 = APPROVAL_ROLE ( '' ) ;
#72 = CALENDAR_DATE ( 2021, 16, 11 ) ;
#73 = ADVANCED_FACE ( 'NONE', ( #125, #188 ), #46, .T. ) ;
#74 = APPLICATION_PROTOCOL_DEFINITION ( 'international standard', 'config_control_design', 1994, #178 ) ;
#75 = PERSON_AND_ORGANIZATION ( #84, #47 ) ;
#76 = DIRECTION ( 'NONE',  ( 0.0000000000000000000, 0.0000000000000000000, 1.000000000000000000 ) ) ;
#77 = ADVANCED_FACE ( 'NONE', ( #122 ), #70, .T. ) ;
#78 = APPROVAL_DATE_TIME ( #131, #198 ) ;
#79 = SHAPE_DEFINITION_REPRESENTATION ( #193, #43 ) ;
#80 = AXIS2_PLACEMENT_3D ( 'NONE', #151, #204, #139 ) ;
#81 = EDGE_CURVE ( 'NONE', #63, #63, #18, .T. ) ;
#82 = CARTESIAN_POINT ( 'NONE',  ( 1.326762908760390423E-13, -4.653657836759941941E-15, 38.00000000000000000 ) ) ;
#83 = CARTESIAN_POINT ( 'NONE',  ( 1.316288464743861212E-13, -4.616918432785521081E-15, 37.69999999999999574 ) ) ;
#84 = PERSON ( 'UNSPECIFIED', 'UNSPECIFIED', 'UNSPECIFIED', ('UNSPECIFIED'), ('UNSPECIFIED'), ('UNSPECIFIED') ) ;
#85 = DIRECTION ( 'NONE',  ( -3.491481338843133355E-15, 1.224646799147353207E-16, -1.000000000000000000 ) ) ;
#86 = CARTESIAN_POINT ( 'NONE',  ( 1.134731435124018340E-14, 1.124819836996387048E-32, 3.250000000000000000 ) ) ;
#87 = VERTEX_POINT ( 'NONE', #134 ) ;
#88 = VERTEX_POINT ( 'NONE', #156 ) ;
#89 = COORDINATED_UNIVERSAL_TIME_OFFSET ( 1, 0, .AHEAD. ) ;
#90 = EDGE_CURVE ( 'NONE', #87, #87, #191, .T. ) ;
#91 = APPROVAL_STATUS ( 'not_yet_approved' ) ;
#92 = APPROVAL_DATE_TIME ( #208, #152 ) ;
#93 = PERSON_AND_ORGANIZATION ( #84, #47 ) ;
#94 = APPROVAL_PERSON_ORGANIZATION ( #93, #152, #71 ) ;
#95 = ORIENTED_EDGE ( 'NONE', *, *, #136, .F. ) ;
#96 = ADVANCED_FACE ( 'NONE', ( #190 ), #32, .F. ) ;
#97 = AXIS2_PLACEMENT_3D ( 'NONE', #124, #69, #10 ) ;
#98 = ORIENTED_EDGE ( 'NONE', *, *, #136, .T. ) ;
#99 = DIRECTION ( 'NONE',  ( 3.491481338843133355E-15, -1.224646799147353207E-16, 1.000000000000000000 ) ) ;
#100 = TOROIDAL_SURFACE ( 'NONE', #80, 8.650000000000000355, 8.000000000000000000 ) ;
#101 = CARTESIAN_POINT ( 'NONE',  ( 1.134731435124018025E-14, -3.989432911768364831E-16, 3.249999999999999112 ) ) ;
#102 = DIRECTION ( 'NONE',  ( -4.275831445896958607E-31, -1.000000000000000000, -1.224646799147353207E-16 ) ) ;
#103 = DIRECTION ( 'NONE',  ( -3.491481338843133355E-15, 1.227517819005651059E-16, -1.000000000000000000 ) ) ;
#104 = APPROVAL_PERSON_ORGANIZATION ( #75, #129, #179 ) ;
#105 = DIRECTION ( 'NONE',  ( 0.0000000000000000000, 1.000000000000000000, 0.0000000000000000000 ) ) ;
#106 = PERSON_AND_ORGANIZATION ( #84, #47 ) ;
#107 = EDGE_CURVE ( 'NONE', #14, #14, #59, .T. ) ;
#108 = UNCERTAINTY_MEASURE_WITH_UNIT (LENGTH_MEASURE( 1.000000000000000082E-05 ), #210, 'distance_accuracy_value', 'NONE');
#109 = DATE_AND_TIME ( #157, #68 ) ;
#110 = PERSON_AND_ORGANIZATION_ROLE ( 'creator' ) ;
#111 = MECHANICAL_CONTEXT ( 'NONE', #162, 'mechanical' ) ;
#112 = EDGE_LOOP ( 'NONE', ( #211 ) ) ;
#113 = ADVANCED_FACE ( 'NONE', ( #9, #137 ), #100, .F. ) ;
#114 = EDGE_LOOP ( 'NONE', ( #95 ) ) ;
#115 = EDGE_LOOP ( 'NONE', ( #118 ) ) ;
#116 = CONICAL_SURFACE ( 'NONE', #41, 1.199999999999996847, 0.7853981633974453924 ) ;
#117 = ADVANCED_FACE ( 'NONE', ( #33, #49 ), #219, .T. ) ;
#118 = ORIENTED_EDGE ( 'NONE', *, *, #185, .F. ) ;
#119 = CARTESIAN_POINT ( 'NONE',  ( -4.275811853558651348E-31, 1.499752910594655314E-32, -1.224641187678636516E-16 ) ) ;
#120 = CARTESIAN_POINT ( 'NONE',  ( 1.134731435124018340E-14, 1.124819836996387048E-32, 3.250000000000000000 ) ) ;
#121 = CLOSED_SHELL ( 'NONE', ( #117, #15, #215, #113, #45 ) ) ;
#122 = FACE_OUTER_BOUND ( 'NONE', #184, .T. ) ;
#123 = CC_DESIGN_PERSON_AND_ORGANIZATION_ASSIGNMENT ( #16, #21, ( #6 ) ) ;
#124 = CARTESIAN_POINT ( 'NONE',  ( 1.134731435124018025E-14, -3.989432911768364831E-16, 3.249999999999999112 ) ) ;
#125 = FACE_OUTER_BOUND ( 'NONE', #146, .T. ) ;
#126 = LOCAL_TIME ( 16, 36, 11.00000000000000000, #51 ) ;
#127 = PERSON_AND_ORGANIZATION ( #84, #47 ) ;
#128 = APPROVAL_ROLE ( '' ) ;
#129 = APPROVAL ( #194, 'UNSPECIFIED' ) ;
#130 = EDGE_LOOP ( 'NONE', ( #58 ) ) ;
#131 = DATE_AND_TIME ( #24, #53 ) ;
#132 = ORIENTED_EDGE ( 'NONE', *, *, #168, .F. ) ;
#133 =( GEOMETRIC_REPRESENTATION_CONTEXT ( 3 ) GLOBAL_UNCERTAINTY_ASSIGNED_CONTEXT ( ( #108 ) ) GLOBAL_UNIT_ASSIGNED_CONTEXT ( ( #210, #206, #160 ) ) REPRESENTATION_CONTEXT ( 'NONE', 'WORKASPACE' ) );
#134 = CARTESIAN_POINT ( 'NONE',  ( 1.316288464743861212E-13, 1.499999999999992228, 37.69999999999999574 ) ) ;
#135 = DIRECTION ( 'NONE',  ( 4.275831445896958607E-31, 1.000000000000000000, 1.224646799147353207E-16 ) ) ;
#136 = EDGE_CURVE ( 'NONE', #88, #88, #222, .T. ) ;
#137 = FACE_OUTER_BOUND ( 'NONE', #5, .T. ) ;
#138 = DIRECTION ( 'NONE',  ( 4.275831445896958607E-31, 1.000000000000000000, 1.224646799147353207E-16 ) ) ;
#139 = DIRECTION ( 'NONE',  ( -4.365601186994270652E-31, -1.000000000000000000, -1.227517819005651059E-16 ) ) ;
#140 = VERTEX_POINT ( 'NONE', #223 ) ;
#141 = COORDINATED_UNIVERSAL_TIME_OFFSET ( 1, 0, .AHEAD. ) ;
#142 = DIRECTION ( 'NONE',  ( 1.000000000000000000, 0.0000000000000000000, 0.0000000000000000000 ) ) ;
#143 = CALENDAR_DATE ( 2021, 16, 11 ) ;
#144 = DATE_AND_TIME ( #143, #158 ) ;
#145 = CIRCLE ( 'NONE', #172, 1.199999999999996847 ) ;
#146 = EDGE_LOOP ( 'NONE', ( #165 ) ) ;
#147 = AXIS2_PLACEMENT_3D ( 'NONE', #83, #170, #155 ) ;
#148 = ORIENTED_EDGE ( 'NONE', *, *, #81, .T. ) ;
#149 = DIRECTION ( 'NONE',  ( -3.491481338843133355E-15, 1.224646799147353207E-16, -1.000000000000000000 ) ) ;
#150 = CIRCLE ( 'NONE', #26, 1.499999999999994893 ) ;
#151 = CARTESIAN_POINT ( 'NONE',  ( 1.134731435124018025E-14, 0.0000000000000000000, 3.249999999999999112 ) ) ;
#152 = APPROVAL ( #55, 'UNSPECIFIED' ) ;
#153 = CARTESIAN_POINT ( 'NONE',  ( 2.387657674276903997E-14, -4.404976384520788793E-16, 6.838523373199611122 ) ) ;
#154 = DIRECTION ( 'NONE',  ( 3.491481338843133355E-15, -1.224646799147353207E-16, 1.000000000000000000 ) ) ;
#155 = DIRECTION ( 'NONE',  ( 0.0000000000000000000, 1.000000000000000000, 0.0000000000000000000 ) ) ;
#156 = CARTESIAN_POINT ( 'NONE',  ( 1.134731435124018025E-14, -0.6500000000000003553, 3.249999999999999112 ) ) ;
#157 = CALENDAR_DATE ( 2021, 16, 11 ) ;
#158 = LOCAL_TIME ( 16, 36, 11.00000000000000000, #20 ) ;
#159 = CC_DESIGN_PERSON_AND_ORGANIZATION_ASSIGNMENT ( #192, #19, ( #29 ) ) ;
#160 =( NAMED_UNIT ( * ) SI_UNIT ( $, .STERADIAN. ) SOLID_ANGLE_UNIT ( ) );
#161 = ORIENTED_EDGE ( 'NONE', *, *, #168, .T. ) ;
#162 = APPLICATION_CONTEXT ( 'configuration controlled 3d designs of mechanical parts and assemblies' ) ;
#163 = EDGE_LOOP ( 'NONE', ( #60 ) ) ;
#164 = FACE_OUTER_BOUND ( 'NONE', #213, .T. ) ;
#165 = ORIENTED_EDGE ( 'NONE', *, *, #107, .T. ) ;
#166 = DIRECTION ( 'NONE',  ( 3.491481338843133355E-15, -1.227517819005651059E-16, 1.000000000000000000 ) ) ;
#167 = AXIS2_PLACEMENT_3D ( 'NONE', #119, #154, #12 ) ;
#168 = EDGE_CURVE ( 'NONE', #201, #201, #150, .T. ) ;
#169 = CARTESIAN_POINT ( 'NONE',  ( 1.134731435124018025E-14, -0.6500000000000003553, 3.249999999999999112 ) ) ;
#170 = DIRECTION ( 'NONE',  ( -3.491481338843133355E-15, 1.224646799147353207E-16, -1.000000000000000000 ) ) ;
#171 = CARTESIAN_POINT ( 'NONE',  ( 1.326762908760390423E-13, -4.653657836759941941E-15, 38.00000000000000000 ) ) ;
#172 = AXIS2_PLACEMENT_3D ( 'NONE', #171, #189, #205 ) ;
#173 = DIRECTION ( 'NONE',  ( -3.491481338843133355E-15, 1.224646799147353207E-16, -1.000000000000000000 ) ) ;
#174 = PERSON_AND_ORGANIZATION_ROLE ( 'classification_officer' ) ;
#175 = DATE_TIME_ROLE ( 'classification_date' ) ;
#176 = CC_DESIGN_PERSON_AND_ORGANIZATION_ASSIGNMENT ( #127, #209, ( #29 ) ) ;
#177 = DATE_AND_TIME ( #72, #34 ) ;
#178 = APPLICATION_CONTEXT ( 'configuration controlled 3d designs of mechanical parts and assemblies' ) ;
#179 = APPROVAL_ROLE ( '' ) ;
#180 = CC_DESIGN_PERSON_AND_ORGANIZATION_ASSIGNMENT ( #106, #174, ( #216 ) ) ;
#181 = CARTESIAN_POINT ( 'NONE',  ( 2.387657674276903997E-14, 1.499999999999994449, 6.838523373199611122 ) ) ;
#182 = CC_DESIGN_APPROVAL ( #129, ( #38 ) ) ;
#183 = COORDINATED_UNIVERSAL_TIME_OFFSET ( 1, 0, .AHEAD. ) ;
#184 = EDGE_LOOP ( 'NONE', ( #148 ) ) ;
#185 = EDGE_CURVE ( 'NONE', #140, #140, #145, .T. ) ;
#186 = AXIS2_PLACEMENT_3D ( 'NONE', #217, #85, #135 ) ;
#187 = EDGE_LOOP ( 'NONE', ( #98 ) ) ;
#188 = FACE_OUTER_BOUND ( 'NONE', #112, .T. ) ;
#189 = DIRECTION ( 'NONE',  ( -3.491481338843133355E-15, 1.224646799147353207E-16, -1.000000000000000000 ) ) ;
#190 = FACE_OUTER_BOUND ( 'NONE', #163, .T. ) ;
#191 = CIRCLE ( 'NONE', #147, 1.499999999999996669 ) ;
#192 = PERSON_AND_ORGANIZATION ( #84, #47 ) ;
#193 = PRODUCT_DEFINITION_SHAPE ( 'NONE', 'NONE',  #38 ) ;
#194 = APPROVAL_STATUS ( 'not_yet_approved' ) ;
#195 = CALENDAR_DATE ( 2021, 16, 11 ) ;
#196 = AXIS2_PLACEMENT_3D ( 'NONE', #27, #202, #66 ) ;
#197 = CC_DESIGN_APPROVAL ( #198, ( #216 ) ) ;
#198 = APPROVAL ( #91, 'UNSPECIFIED' ) ;
#199 = AXIS2_PLACEMENT_3D ( 'NONE', #50, #173, #138 ) ;
#200 = PLANE ( 'NONE',  #4 ) ;
#201 = VERTEX_POINT ( 'NONE', #181 ) ;
#202 = DIRECTION ( 'NONE',  ( 3.491481338843133355E-15, -1.227517819005651059E-16, 1.000000000000000000 ) ) ;
#203 = CARTESIAN_POINT ( 'NONE',  ( -5.571612225602345059E-31, -0.6499999999999995781, -1.595773164707345341E-16 ) ) ;
#204 = DIRECTION ( 'NONE',  ( 3.491481338843133355E-15, -1.227517819005651059E-16, 1.000000000000000000 ) ) ;
#205 = DIRECTION ( 'NONE',  ( 0.0000000000000000000, 1.000000000000000000, 0.0000000000000000000 ) ) ;
#206 =( NAMED_UNIT ( * ) PLANE_ANGLE_UNIT ( ) SI_UNIT ( $, .RADIAN. ) );
#207 = MANIFOLD_SOLID_BREP ( 'Corps-Déplacer/Copier1[2]', #23 ) ;
#208 = DATE_AND_TIME ( #195, #126 ) ;
#209 = PERSON_AND_ORGANIZATION_ROLE ( 'creator' ) ;
#210 =( LENGTH_UNIT ( ) NAMED_UNIT ( * ) SI_UNIT ( .MILLI., .METRE. ) );
#211 = ORIENTED_EDGE ( 'NONE', *, *, #81, .F. ) ;
#212 = ORIENTED_EDGE ( 'NONE', *, *, #90, .T. ) ;
#213 = EDGE_LOOP ( 'NONE', ( #3 ) ) ;
#214 = DIRECTION ( 'NONE',  ( 0.0000000000000000000, 1.000000000000000000, 0.0000000000000000000 ) ) ;
#215 = ADVANCED_FACE ( 'NONE', ( #13 ), #31, .F. ) ;
#216 = SECURITY_CLASSIFICATION ( '', '', #35 ) ;
#217 = CARTESIAN_POINT ( 'NONE',  ( 0.0000000000000000000, 0.0000000000000000000, 0.0000000000000000000 ) ) ;
#218 = CARTESIAN_POINT ( 'NONE',  ( -2.785806112801172530E-31, -1.275488267902078860E-32, -7.978865823536726704E-17 ) ) ;
#219 = CYLINDRICAL_SURFACE ( 'NONE', #186, 1.499999999999994893 ) ;
#220 = CC_DESIGN_SECURITY_CLASSIFICATION ( #216, ( #29 ) ) ;
#221 = DIRECTION ( 'NONE',  ( -4.275831445896958607E-31, -1.000000000000000000, -1.224646799147353207E-16 ) ) ;
#222 = CIRCLE ( 'NONE', #28, 0.6500000000000000222 ) ;
#223 = CARTESIAN_POINT ( 'NONE',  ( 1.326762908760390423E-13, 1.199999999999992406, 38.00000000000000000 ) ) ;
ENDSEC;
END-ISO-10303-21;
