ISO-10303-21;
HEADER;
FILE_DESCRIPTION (( 'STEP AP203' ),
    '1' );
FILE_NAME ('966072.step',
    '2021-11-16T15:36:11',
    ( '' ),
    ( '' ),
    'SwSTEP 2.0',
    'SolidWorks 2019',
    '' );
FILE_SCHEMA (( 'CONFIG_CONTROL_DESIGN' ));
ENDSEC;

DATA;
#1 = CC_DESIGN_PERSON_AND_ORGANIZATION_ASSIGNMENT ( #9, #106, ( #54 ) ) ;
#2 = VERTEX_POINT ( 'NONE', #207 ) ;
#3 = DIRECTION ( 'NONE',  ( -3.491481338843133355E-15, 1.227517819005651059E-16, -1.000000000000000000 ) ) ;
#4 = DIRECTION ( 'NONE',  ( -4.285855558155652404E-31, -1.000000000000000000, -1.227517819005651059E-16 ) ) ;
#5 = COORDINATED_UNIVERSAL_TIME_OFFSET ( 1, 0, .AHEAD. ) ;
#6 = MECHANICAL_CONTEXT ( 'NONE', #125, 'mechanical' ) ;
#7 = AXIS2_PLACEMENT_3D ( 'NONE', #166, #81, #152 ) ;
#8 = LOCAL_TIME ( 16, 36, 11.00000000000000000, #161 ) ;
#9 = PERSON_AND_ORGANIZATION ( #48, #97 ) ;
#10 = APPROVAL ( #142, 'UNSPECIFIED' ) ;
#11 = PERSON_AND_ORGANIZATION_ROLE ( 'design_supplier' ) ;
#12 = ADVANCED_BREP_SHAPE_REPRESENTATION ( '966072', ( #203, #51, #83 ), #53 ) ;
#13 = ORIENTED_EDGE ( 'NONE', *, *, #134, .T. ) ;
#14 = EDGE_CURVE ( 'NONE', #70, #70, #113, .T. ) ;
#15 = DIRECTION ( 'NONE',  ( -4.275831445896958607E-31, -1.000000000000000000, -1.224646799147353207E-16 ) ) ;
#16 = CARTESIAN_POINT ( 'NONE',  ( -2.571513334893389691E-31, -1.350828267700898774E-32, -7.365106914033897970E-17 ) ) ;
#17 =( LENGTH_UNIT ( ) NAMED_UNIT ( * ) SI_UNIT ( .MILLI., .METRE. ) );
#18 = APPROVAL ( #22, 'UNSPECIFIED' ) ;
#19 = CARTESIAN_POINT ( 'NONE',  ( 1.047444401652939691E-14, -3.682553457016952190E-16, 2.999999999999999112 ) ) ;
#20 = LOCAL_TIME ( 16, 36, 11.00000000000000000, #177 ) ;
#21 = PERSON_AND_ORGANIZATION ( #48, #97 ) ;
#22 = APPROVAL_STATUS ( 'not_yet_approved' ) ;
#23 = LOCAL_TIME ( 16, 36, 11.00000000000000000, #151 ) ;
#24 = AXIS2_PLACEMENT_3D ( 'NONE', #93, #167, #15 ) ;
#25 = DIRECTION ( 'NONE',  ( 0.0000000000000000000, 1.000000000000000000, 0.0000000000000000000 ) ) ;
#26 = DIRECTION ( 'NONE',  ( 3.491481338843133355E-15, -1.227517819005651059E-16, 1.000000000000000000 ) ) ;
#27 = DESIGN_CONTEXT ( 'detailed design', #108, 'design' ) ;
#28 = EDGE_LOOP ( 'NONE', ( #61 ) ) ;
#29 = ADVANCED_FACE ( 'NONE', ( #65 ), #181, .F. ) ;
#30 = FACE_OUTER_BOUND ( 'NONE', #78, .T. ) ;
#31 = CARTESIAN_POINT ( 'NONE',  ( -6.413731847436034514E-31, 0.0000000000000000000, -1.836965810494968570E-16 ) ) ;
#32 = ADVANCED_FACE ( 'NONE', ( #197 ), #183, .F. ) ;
#33 = APPROVAL_DATE_TIME ( #35, #18 ) ;
#34 = PERSON_AND_ORGANIZATION ( #48, #97 ) ;
#35 = DATE_AND_TIME ( #129, #8 ) ;
#36 = ADVANCED_FACE ( 'NONE', ( #201 ), #43, .T. ) ;
#37 = DIRECTION ( 'NONE',  ( 0.0000000000000000000, 0.0000000000000000000, 1.000000000000000000 ) ) ;
#38 = LOCAL_TIME ( 16, 36, 11.00000000000000000, #102 ) ;
#39 = DATE_TIME_ROLE ( 'classification_date' ) ;
#40 = EDGE_LOOP ( 'NONE', ( #220 ) ) ;
#41 = FACE_BOUND ( 'NONE', #115, .T. ) ;
#42 = AXIS2_PLACEMENT_3D ( 'NONE', #223, #186, #171 ) ;
#43 = PLANE ( 'NONE',  #24 ) ;
#44 = CC_DESIGN_PERSON_AND_ORGANIZATION_ASSIGNMENT ( #21, #213, ( #66 ) ) ;
#45 = CARTESIAN_POINT ( 'NONE',  ( 1.047444401652939691E-14, 0.0000000000000000000, 2.999999999999999112 ) ) ;
#46 = CARTESIAN_POINT ( 'NONE',  ( 0.0000000000000000000, 0.0000000000000000000, 0.0000000000000000000 ) ) ;
#47 = VERTEX_POINT ( 'NONE', #208 ) ;
#48 = PERSON ( 'UNSPECIFIED', 'UNSPECIFIED', 'UNSPECIFIED', ('UNSPECIFIED'), ('UNSPECIFIED'), ('UNSPECIFIED') ) ;
#49 = CARTESIAN_POINT ( 'NONE',  ( 1.047444401652939691E-14, -0.6000000000000005329, 2.999999999999999112 ) ) ;
#50 = APPROVAL_PERSON_ORGANIZATION ( #86, #84, #196 ) ;
#51 = MANIFOLD_SOLID_BREP ( 'Corps-Déplacer/Copier1[2]', #57 ) ;
#52 = PERSON_AND_ORGANIZATION ( #48, #97 ) ;
#53 =( GEOMETRIC_REPRESENTATION_CONTEXT ( 3 ) GLOBAL_UNCERTAINTY_ASSIGNED_CONTEXT ( ( #170 ) ) GLOBAL_UNIT_ASSIGNED_CONTEXT ( ( #17, #68, #189 ) ) REPRESENTATION_CONTEXT ( 'NONE', 'WORKASPACE' ) );
#54 = PRODUCT_DEFINITION ( 'UNKNOWN', '', #66, #27 ) ;
#55 = PERSON_AND_ORGANIZATION_ROLE ( 'design_owner' ) ;
#56 = DIRECTION ( 'NONE',  ( 1.000000000000000000, 0.0000000000000000000, 0.0000000000000000000 ) ) ;
#57 = CLOSED_SHELL ( 'NONE', ( #36, #199, #91 ) ) ;
#58 = AXIS2_PLACEMENT_3D ( 'NONE', #46, #187, #139 ) ;
#59 = EDGE_LOOP ( 'NONE', ( #13 ) ) ;
#60 = DIRECTION ( 'NONE',  ( -4.365841384671495503E-31, -1.000000000000000000, -1.227517819005651059E-16 ) ) ;
#61 = ORIENTED_EDGE ( 'NONE', *, *, #210, .F. ) ;
#62 = ADVANCED_FACE ( 'NONE', ( #64, #41 ), #164, .T. ) ;
#63 = CARTESIAN_POINT ( 'NONE',  ( -4.275811853558651348E-31, 1.499752910594655314E-32, -1.224641187678636516E-16 ) ) ;
#64 = FACE_OUTER_BOUND ( 'NONE', #184, .T. ) ;
#65 = FACE_OUTER_BOUND ( 'NONE', #118, .T. ) ;
#66 = PRODUCT_DEFINITION_FORMATION_WITH_SPECIFIED_SOURCE ( 'ANY', '', #104, .NOT_KNOWN. ) ;
#67 = CARTESIAN_POINT ( 'NONE',  ( -5.143026669786779381E-31, -0.5999999999999994227, -1.473021382806779594E-16 ) ) ;
#68 =( NAMED_UNIT ( * ) PLANE_ANGLE_UNIT ( ) SI_UNIT ( $, .RADIAN. ) );
#69 = AXIS2_PLACEMENT_3D ( 'NONE', #79, #150, #25 ) ;
#70 = VERTEX_POINT ( 'NONE', #67 ) ;
#71 = DATE_AND_TIME ( #163, #20 ) ;
#72 = CALENDAR_DATE ( 2021, 16, 11 ) ;
#73 = PERSON_AND_ORGANIZATION ( #48, #97 ) ;
#74 = SECURITY_CLASSIFICATION_LEVEL ( 'unclassified' ) ;
#75 = EDGE_LOOP ( 'NONE', ( #107 ) ) ;
#76 = APPROVAL_PERSON_ORGANIZATION ( #34, #10, #109 ) ;
#77 = DIRECTION ( 'NONE',  ( 3.491481338843133355E-15, -1.227517819005651059E-16, 1.000000000000000000 ) ) ;
#78 = EDGE_LOOP ( 'NONE', ( #135 ) ) ;
#79 = CARTESIAN_POINT ( 'NONE',  ( 1.326762908760390423E-13, -4.653657836759941941E-15, 38.00000000000000000 ) ) ;
#80 = CC_DESIGN_APPROVAL ( #18, ( #54 ) ) ;
#81 = DIRECTION ( 'NONE',  ( -3.491481338843133355E-15, 1.224646799147353207E-16, -1.000000000000000000 ) ) ;
#82 = DIRECTION ( 'NONE',  ( 3.491481338843133355E-15, -1.227517819005651059E-16, 1.000000000000000000 ) ) ;
#83 = AXIS2_PLACEMENT_3D ( 'NONE', #194, #37, #56 ) ;
#84 = APPROVAL ( #145, 'UNSPECIFIED' ) ;
#85 = AXIS2_PLACEMENT_3D ( 'NONE', #31, #100, #4 ) ;
#86 = PERSON_AND_ORGANIZATION ( #48, #97 ) ;
#87 = APPLICATION_PROTOCOL_DEFINITION ( 'international standard', 'config_control_design', 1994, #108 ) ;
#88 = CALENDAR_DATE ( 2021, 16, 11 ) ;
#89 = FACE_OUTER_BOUND ( 'NONE', #165, .T. ) ;
#90 = APPROVAL_DATE_TIME ( #112, #10 ) ;
#91 = ADVANCED_FACE ( 'NONE', ( #219 ), #110, .F. ) ;
#92 = CARTESIAN_POINT ( 'NONE',  ( 1.047444401652939691E-14, -3.682553457016952190E-16, 2.999999999999999112 ) ) ;
#93 = CARTESIAN_POINT ( 'NONE',  ( 1.047444401652940007E-14, 1.124819836996387048E-32, 3.000000000000000000 ) ) ;
#94 = FACE_OUTER_BOUND ( 'NONE', #28, .T. ) ;
#95 = CC_DESIGN_APPROVAL ( #84, ( #66 ) ) ;
#96 = ORIENTED_EDGE ( 'NONE', *, *, #210, .T. ) ;
#97 = ORGANIZATION ( 'UNSPECIFIED', 'UNSPECIFIED', '' ) ;
#98 = VERTEX_POINT ( 'NONE', #49 ) ;
#99 = DIRECTION ( 'NONE',  ( 0.0000000000000000000, -1.000000000000000000, 0.0000000000000000000 ) ) ;
#100 = DIRECTION ( 'NONE',  ( 3.491481338843133355E-15, -1.227517819005651059E-16, 1.000000000000000000 ) ) ;
#101 = AXIS2_PLACEMENT_3D ( 'NONE', #221, #116, #133 ) ;
#102 = COORDINATED_UNIVERSAL_TIME_OFFSET ( 1, 0, .AHEAD. ) ;
#103 = ADVANCED_FACE ( 'NONE', ( #179, #89 ), #132, .F. ) ;
#104 = PRODUCT ( '966072', '966072', '', ( #6 ) ) ;
#105 = APPROVAL_ROLE ( '' ) ;
#106 = PERSON_AND_ORGANIZATION_ROLE ( 'creator' ) ;
#107 = ORIENTED_EDGE ( 'NONE', *, *, #193, .T. ) ;
#108 = APPLICATION_CONTEXT ( 'configuration controlled 3d designs of mechanical parts and assemblies' ) ;
#109 = APPROVAL_ROLE ( '' ) ;
#110 = PLANE ( 'NONE',  #127 ) ;
#111 = CC_DESIGN_PERSON_AND_ORGANIZATION_ASSIGNMENT ( #126, #55, ( #104 ) ) ;
#112 = DATE_AND_TIME ( #88, #23 ) ;
#113 = CIRCLE ( 'NONE', #205, 0.5999999999999994227 ) ;
#114 = CC_DESIGN_APPROVAL ( #10, ( #214 ) ) ;
#115 = EDGE_LOOP ( 'NONE', ( #185 ) ) ;
#116 = DIRECTION ( 'NONE',  ( 3.491481338843133355E-15, -1.224646799147353207E-16, 1.000000000000000000 ) ) ;
#117 = ORIENTED_EDGE ( 'NONE', *, *, #134, .F. ) ;
#118 = EDGE_LOOP ( 'NONE', ( #117 ) ) ;
#119 = CLOSED_SHELL ( 'NONE', ( #168, #62, #32, #103, #29 ) ) ;
#120 = AXIS2_PLACEMENT_3D ( 'NONE', #154, #157, #124 ) ;
#121 = VERTEX_POINT ( 'NONE', #140 ) ;
#122 = DIRECTION ( 'NONE',  ( 3.491481338843133355E-15, -1.227517819005651059E-16, 1.000000000000000000 ) ) ;
#123 = APPROVAL_PERSON_ORGANIZATION ( #73, #18, #105 ) ;
#124 = DIRECTION ( 'NONE',  ( 0.0000000000000000000, 1.000000000000000000, 0.0000000000000000000 ) ) ;
#125 = APPLICATION_CONTEXT ( 'configuration controlled 3d designs of mechanical parts and assemblies' ) ;
#126 = PERSON_AND_ORGANIZATION ( #48, #97 ) ;
#127 = AXIS2_PLACEMENT_3D ( 'NONE', #63, #202, #148 ) ;
#128 = PRODUCT_DEFINITION_SHAPE ( 'NONE', 'NONE',  #54 ) ;
#129 = CALENDAR_DATE ( 2021, 16, 11 ) ;
#130 = CC_DESIGN_DATE_AND_TIME_ASSIGNMENT ( #71, #158, ( #54 ) ) ;
#131 = ORIENTED_EDGE ( 'NONE', *, *, #14, .F. ) ;
#132 = TOROIDAL_SURFACE ( 'NONE', #195, 8.599999999999999645, 8.000000000000000000 ) ;
#133 = DIRECTION ( 'NONE',  ( -4.275831445896958607E-31, -1.000000000000000000, -1.224646799147353207E-16 ) ) ;
#134 = EDGE_CURVE ( 'NONE', #137, #137, #141, .T. ) ;
#135 = ORIENTED_EDGE ( 'NONE', *, *, #193, .F. ) ;
#136 = EDGE_LOOP ( 'NONE', ( #216 ) ) ;
#137 = VERTEX_POINT ( 'NONE', #138 ) ;
#138 = CARTESIAN_POINT ( 'NONE',  ( 1.047444401652939691E-14, -0.6000000000000005329, 2.999999999999999112 ) ) ;
#139 = DIRECTION ( 'NONE',  ( 4.275831445896958607E-31, 1.000000000000000000, 1.224646799147353207E-16 ) ) ;
#140 = CARTESIAN_POINT ( 'NONE',  ( 2.334565631210070254E-14, 1.499999999999994449, 6.686461718233339901 ) ) ;
#141 = CIRCLE ( 'NONE', #180, 0.6000000000000001998 ) ;
#142 = APPROVAL_STATUS ( 'not_yet_approved' ) ;
#143 = CIRCLE ( 'NONE', #200, 1.499999999999994893 ) ;
#144 = CC_DESIGN_DATE_AND_TIME_ASSIGNMENT ( #215, #39, ( #214 ) ) ;
#145 = APPROVAL_STATUS ( 'not_yet_approved' ) ;
#146 = PERSON_AND_ORGANIZATION_ROLE ( 'classification_officer' ) ;
#147 = ORIENTED_EDGE ( 'NONE', *, *, #174, .F. ) ;
#148 = DIRECTION ( 'NONE',  ( -4.275831445896958607E-31, -1.000000000000000000, -1.224646799147353207E-16 ) ) ;
#149 = ORIENTED_EDGE ( 'NONE', *, *, #14, .T. ) ;
#150 = DIRECTION ( 'NONE',  ( -3.491481338843133355E-15, 1.224646799147353207E-16, -1.000000000000000000 ) ) ;
#151 = COORDINATED_UNIVERSAL_TIME_OFFSET ( 1, 0, .AHEAD. ) ;
#152 = DIRECTION ( 'NONE',  ( 4.275831445896958607E-31, 1.000000000000000000, 1.224646799147353207E-16 ) ) ;
#153 = DIRECTION ( 'NONE',  ( -4.285855558155653280E-31, -1.000000000000000000, -1.227517819005650812E-16 ) ) ;
#154 = CARTESIAN_POINT ( 'NONE',  ( 1.316288464743861212E-13, -4.616918432785521081E-15, 37.69999999999999574 ) ) ;
#155 = CIRCLE ( 'NONE', #42, 1.199999999999996847 ) ;
#156 = FACE_OUTER_BOUND ( 'NONE', #169, .T. ) ;
#157 = DIRECTION ( 'NONE',  ( -3.491481338843133355E-15, 1.224646799147353207E-16, -1.000000000000000000 ) ) ;
#158 = DATE_TIME_ROLE ( 'creation_date' ) ;
#159 = APPLICATION_PROTOCOL_DEFINITION ( 'international standard', 'config_control_design', 1994, #125 ) ;
#160 = CC_DESIGN_PERSON_AND_ORGANIZATION_ASSIGNMENT ( #175, #146, ( #214 ) ) ;
#161 = COORDINATED_UNIVERSAL_TIME_OFFSET ( 1, 0, .AHEAD. ) ;
#162 = APPROVAL_DATE_TIME ( #192, #84 ) ;
#163 = CALENDAR_DATE ( 2021, 16, 11 ) ;
#164 = CONICAL_SURFACE ( 'NONE', #69, 1.199999999999996847, 0.7853981633974453924 ) ;
#165 = EDGE_LOOP ( 'NONE', ( #96 ) ) ;
#166 = CARTESIAN_POINT ( 'NONE',  ( 1.326762908760390423E-13, 8.998558695971053960E-33, 38.00000000000000000 ) ) ;
#167 = DIRECTION ( 'NONE',  ( 3.491481338843133355E-15, -1.224646799147353207E-16, 1.000000000000000000 ) ) ;
#168 = ADVANCED_FACE ( 'NONE', ( #198, #94 ), #204, .T. ) ;
#169 = EDGE_LOOP ( 'NONE', ( #149 ) ) ;
#170 = UNCERTAINTY_MEASURE_WITH_UNIT (LENGTH_MEASURE( 1.000000000000000082E-05 ), #17, 'distance_accuracy_value', 'NONE');
#171 = DIRECTION ( 'NONE',  ( 0.0000000000000000000, 1.000000000000000000, 0.0000000000000000000 ) ) ;
#172 = DIRECTION ( 'NONE',  ( 0.0000000000000000000, 1.000000000000000000, 0.0000000000000000000 ) ) ;
#173 = CALENDAR_DATE ( 2021, 16, 11 ) ;
#174 = EDGE_CURVE ( 'NONE', #47, #47, #191, .T. ) ;
#175 = PERSON_AND_ORGANIZATION ( #48, #97 ) ;
#176 = EDGE_CURVE ( 'NONE', #2, #2, #155, .T. ) ;
#177 = COORDINATED_UNIVERSAL_TIME_OFFSET ( 1, 0, .AHEAD. ) ;
#178 = SHAPE_DEFINITION_REPRESENTATION ( #128, #12 ) ;
#179 = FACE_OUTER_BOUND ( 'NONE', #59, .T. ) ;
#180 = AXIS2_PLACEMENT_3D ( 'NONE', #92, #26, #217 ) ;
#181 = PLANE ( 'NONE',  #101 ) ;
#182 = CC_DESIGN_PERSON_AND_ORGANIZATION_ASSIGNMENT ( #52, #11, ( #66 ) ) ;
#183 = PLANE ( 'NONE',  #7 ) ;
#184 = EDGE_LOOP ( 'NONE', ( #147 ) ) ;
#185 = ORIENTED_EDGE ( 'NONE', *, *, #176, .T. ) ;
#186 = DIRECTION ( 'NONE',  ( -3.491481338843133355E-15, 1.224646799147353207E-16, -1.000000000000000000 ) ) ;
#187 = DIRECTION ( 'NONE',  ( -3.491481338843133355E-15, 1.224646799147353207E-16, -1.000000000000000000 ) ) ;
#188 = LOCAL_TIME ( 16, 36, 11.00000000000000000, #5 ) ;
#189 =( NAMED_UNIT ( * ) SI_UNIT ( $, .STERADIAN. ) SOLID_ANGLE_UNIT ( ) );
#190 = PRODUCT_RELATED_PRODUCT_CATEGORY ( 'detail', '', ( #104 ) ) ;
#191 = CIRCLE ( 'NONE', #120, 1.499999999999996669 ) ;
#192 = DATE_AND_TIME ( #173, #188 ) ;
#193 = EDGE_CURVE ( 'NONE', #98, #98, #211, .T. ) ;
#194 = CARTESIAN_POINT ( 'NONE',  ( 0.0000000000000000000, 0.0000000000000000000, 0.0000000000000000000 ) ) ;
#195 = AXIS2_PLACEMENT_3D ( 'NONE', #45, #77, #60 ) ;
#196 = APPROVAL_ROLE ( '' ) ;
#197 = FACE_OUTER_BOUND ( 'NONE', #40, .T. ) ;
#198 = FACE_OUTER_BOUND ( 'NONE', #136, .T. ) ;
#199 = ADVANCED_FACE ( 'NONE', ( #156, #30 ), #209, .T. ) ;
#200 = AXIS2_PLACEMENT_3D ( 'NONE', #212, #3, #172 ) ;
#201 = FACE_OUTER_BOUND ( 'NONE', #75, .T. ) ;
#202 = DIRECTION ( 'NONE',  ( 3.491481338843133355E-15, -1.224646799147353207E-16, 1.000000000000000000 ) ) ;
#203 = MANIFOLD_SOLID_BREP ( 'Corps-Déplacer/Copier1[1]', #119 ) ;
#204 = CYLINDRICAL_SURFACE ( 'NONE', #58, 1.499999999999994893 ) ;
#205 = AXIS2_PLACEMENT_3D ( 'NONE', #16, #82, #153 ) ;
#206 = CC_DESIGN_SECURITY_CLASSIFICATION ( #214, ( #66 ) ) ;
#207 = CARTESIAN_POINT ( 'NONE',  ( 1.326762908760390423E-13, 1.199999999999992406, 38.00000000000000000 ) ) ;
#208 = CARTESIAN_POINT ( 'NONE',  ( 1.316288464743861212E-13, 1.499999999999992228, 37.69999999999999574 ) ) ;
#209 = CYLINDRICAL_SURFACE ( 'NONE', #85, 0.5999999999999998668 ) ;
#210 = EDGE_CURVE ( 'NONE', #121, #121, #143, .T. ) ;
#211 = CIRCLE ( 'NONE', #222, 0.6000000000000001998 ) ;
#212 = CARTESIAN_POINT ( 'NONE',  ( 2.334565631210070254E-14, -4.525197448213616114E-16, 6.686461718233339901 ) ) ;
#213 = PERSON_AND_ORGANIZATION_ROLE ( 'creator' ) ;
#214 = SECURITY_CLASSIFICATION ( '', '', #74 ) ;
#215 = DATE_AND_TIME ( #72, #38 ) ;
#216 = ORIENTED_EDGE ( 'NONE', *, *, #174, .T. ) ;
#217 = DIRECTION ( 'NONE',  ( 0.0000000000000000000, -1.000000000000000000, 0.0000000000000000000 ) ) ;
#218 = EDGE_LOOP ( 'NONE', ( #131 ) ) ;
#219 = FACE_OUTER_BOUND ( 'NONE', #218, .T. ) ;
#220 = ORIENTED_EDGE ( 'NONE', *, *, #176, .F. ) ;
#221 = CARTESIAN_POINT ( 'NONE',  ( 1.047444401652940007E-14, 1.124819836996387048E-32, 3.000000000000000000 ) ) ;
#222 = AXIS2_PLACEMENT_3D ( 'NONE', #19, #122, #99 ) ;
#223 = CARTESIAN_POINT ( 'NONE',  ( 1.326762908760390423E-13, -4.653657836759941941E-15, 38.00000000000000000 ) ) ;
ENDSEC;
END-ISO-10303-21;
