ISO-10303-21;
HEADER;
FILE_DESCRIPTION (( 'STEP AP203' ),
    '1' );
FILE_NAME ('966071.step',
    '2021-11-16T15:36:10',
    ( '' ),
    ( '' ),
    'SwSTEP 2.0',
    'SolidWorks 2019',
    '' );
FILE_SCHEMA (( 'CONFIG_CONTROL_DESIGN' ));
ENDSEC;

DATA;
#1 = APPROVAL_DATE_TIME ( #153, #216 ) ;
#2 = ORIENTED_EDGE ( 'NONE', *, *, #93, .F. ) ;
#3 = DIRECTION ( 'NONE',  ( 3.491481338843133355E-15, -1.219242935835426903E-16, 1.000000000000000000 ) ) ;
#4 = SECURITY_CLASSIFICATION ( '', '', #205 ) ;
#5 = EDGE_LOOP ( 'NONE', ( #94 ) ) ;
#6 = DIRECTION ( 'NONE',  ( 3.491481338843133355E-15, -1.219242935835426903E-16, 1.000000000000000000 ) ) ;
#7 = PRODUCT_DEFINITION ( 'UNKNOWN', '', #121, #141 ) ;
#8 = AXIS2_PLACEMENT_3D ( 'NONE', #180, #6, #110 ) ;
#9 = CARTESIAN_POINT ( 'NONE',  ( 9.601573681818616727E-15, -3.352918073547423982E-16, 2.750000000000000000 ) ) ;
#10 = AXIS2_PLACEMENT_3D ( 'NONE', #170, #104, #183 ) ;
#11 = PRODUCT_DEFINITION_SHAPE ( 'NONE', 'NONE',  #7 ) ;
#12 = FACE_OUTER_BOUND ( 'NONE', #136, .T. ) ;
#13 = PERSON_AND_ORGANIZATION ( #130, #175 ) ;
#14 = PERSON_AND_ORGANIZATION_ROLE ( 'creator' ) ;
#15 = CARTESIAN_POINT ( 'NONE',  ( 1.326762908760390423E-13, 1.199999999999992406, 38.00000000000000000 ) ) ;
#16 = CARTESIAN_POINT ( 'NONE',  ( 1.326762908760390423E-13, 8.998558695971053960E-33, 38.00000000000000000 ) ) ;
#17 = FACE_OUTER_BOUND ( 'NONE', #156, .T. ) ;
#18 = PERSON_AND_ORGANIZATION ( #130, #175 ) ;
#19 = CC_DESIGN_DATE_AND_TIME_ASSIGNMENT ( #70, #51, ( #7 ) ) ;
#20 = ORIENTED_EDGE ( 'NONE', *, *, #93, .T. ) ;
#21 = CIRCLE ( 'NONE', #75, 0.5499999999999996003 ) ;
#22 = ORIENTED_EDGE ( 'NONE', *, *, #230, .F. ) ;
#23 = EDGE_LOOP ( 'NONE', ( #207 ) ) ;
#24 = ADVANCED_FACE ( 'NONE', ( #209 ), #45, .T. ) ;
#25 = DIRECTION ( 'NONE',  ( 3.491481338843133355E-15, -1.219242935835426903E-16, 1.000000000000000000 ) ) ;
#26 = MANIFOLD_SOLID_BREP ( 'Corps-Déplacer/Copier1[2]', #211 ) ;
#27 = DIRECTION ( 'NONE',  ( 3.491481338843133355E-15, -1.219242935835426903E-16, 1.000000000000000000 ) ) ;
#28 = APPLICATION_CONTEXT ( 'configuration controlled 3d designs of mechanical parts and assemblies' ) ;
#29 = DIRECTION ( 'NONE',  ( 3.491481338843133355E-15, -1.219242935835426903E-16, 1.000000000000000000 ) ) ;
#30 = AXIS2_PLACEMENT_3D ( 'NONE', #191, #239, #201 ) ;
#31 =( NAMED_UNIT ( * ) SI_UNIT ( $, .STERADIAN. ) SOLID_ANGLE_UNIT ( ) );
#32 = CONICAL_SURFACE ( 'NONE', #194, 2.499999999999995559, 0.2617993877991429685 ) ;
#33 = APPLICATION_CONTEXT ( 'configuration controlled 3d designs of mechanical parts and assemblies' ) ;
#34 =( GEOMETRIC_REPRESENTATION_CONTEXT ( 3 ) GLOBAL_UNCERTAINTY_ASSIGNED_CONTEXT ( ( #83 ) ) GLOBAL_UNIT_ASSIGNED_CONTEXT ( ( #215, #149, #31 ) ) REPRESENTATION_CONTEXT ( 'NONE', 'WORKASPACE' ) );
#35 = APPROVAL_STATUS ( 'not_yet_approved' ) ;
#36 = VERTEX_POINT ( 'NONE', #143 ) ;
#37 = DIRECTION ( 'NONE',  ( 3.491481338843133355E-15, -1.224646799147353207E-16, 1.000000000000000000 ) ) ;
#38 = EDGE_CURVE ( 'NONE', #36, #36, #126, .T. ) ;
#39 = COORDINATED_UNIVERSAL_TIME_OFFSET ( 1, 0, .AHEAD. ) ;
#40 = DATE_TIME_ROLE ( 'classification_date' ) ;
#41 = EDGE_LOOP ( 'NONE', ( #2 ) ) ;
#42 = DATE_AND_TIME ( #241, #151 ) ;
#43 = LOCAL_TIME ( 16, 36, 10.00000000000000000, #39 ) ;
#44 = ORIENTED_EDGE ( 'NONE', *, *, #99, .T. ) ;
#45 = PLANE ( 'NONE',  #181 ) ;
#46 = AXIS2_PLACEMENT_3D ( 'NONE', #16, #90, #198 ) ;
#47 = FACE_OUTER_BOUND ( 'NONE', #97, .T. ) ;
#48 = DIRECTION ( 'NONE',  ( -3.491481338843133355E-15, 1.219242935835426903E-16, -1.000000000000000000 ) ) ;
#49 = DIRECTION ( 'NONE',  ( 0.0000000000000000000, -1.000000000000000000, 0.0000000000000000000 ) ) ;
#50 = CALENDAR_DATE ( 2021, 16, 11 ) ;
#51 = DATE_TIME_ROLE ( 'creation_date' ) ;
#52 = FACE_OUTER_BOUND ( 'NONE', #115, .T. ) ;
#53 = CIRCLE ( 'NONE', #192, 0.5500000000000001554 ) ;
#54 = FACE_BOUND ( 'NONE', #63, .T. ) ;
#55 = ADVANCED_FACE ( 'NONE', ( #54, #76 ), #32, .T. ) ;
#56 = CALENDAR_DATE ( 2021, 16, 11 ) ;
#57 = PERSON_AND_ORGANIZATION ( #130, #175 ) ;
#58 = CC_DESIGN_PERSON_AND_ORGANIZATION_ASSIGNMENT ( #144, #14, ( #7 ) ) ;
#59 = ORIENTED_EDGE ( 'NONE', *, *, #174, .T. ) ;
#60 = EDGE_LOOP ( 'NONE', ( #229 ) ) ;
#61 = CIRCLE ( 'NONE', #30, 1.499999999999996669 ) ;
#62 = ORIENTED_EDGE ( 'NONE', *, *, #38, .T. ) ;
#63 = EDGE_LOOP ( 'NONE', ( #20 ) ) ;
#64 = ORIENTED_EDGE ( 'NONE', *, *, #230, .T. ) ;
#65 = CARTESIAN_POINT ( 'NONE',  ( 3.593015037186646485E-14, -1.254699016633381702E-15, 10.29080406993426777 ) ) ;
#66 = CC_DESIGN_PERSON_AND_ORGANIZATION_ASSIGNMENT ( #124, #69, ( #221 ) ) ;
#67 = FACE_OUTER_BOUND ( 'NONE', #60, .T. ) ;
#68 = APPROVAL_DATE_TIME ( #123, #77 ) ;
#69 = PERSON_AND_ORGANIZATION_ROLE ( 'design_owner' ) ;
#70 = DATE_AND_TIME ( #167, #157 ) ;
#71 = CARTESIAN_POINT ( 'NONE',  ( -1.730670105285484559E-30, 6.043587507272899522E-32, -4.956836188787778346E-16 ) ) ;
#72 = VERTEX_POINT ( 'NONE', #105 ) ;
#73 = FACE_OUTER_BOUND ( 'NONE', #227, .T. ) ;
#74 = AXIS2_PLACEMENT_3D ( 'NONE', #101, #197, #213 ) ;
#75 = AXIS2_PLACEMENT_3D ( 'NONE', #9, #100, #120 ) ;
#76 = FACE_OUTER_BOUND ( 'NONE', #5, .T. ) ;
#77 = APPROVAL ( #185, 'UNSPECIFIED' ) ;
#78 = CIRCLE ( 'NONE', #178, 1.199999999999996847 ) ;
#79 = SHAPE_DEFINITION_REPRESENTATION ( #11, #134 ) ;
#80 = ORIENTED_EDGE ( 'NONE', *, *, #99, .F. ) ;
#81 = CARTESIAN_POINT ( 'NONE',  ( 0.0000000000000000000, 0.0000000000000000000, 0.0000000000000000000 ) ) ;
#82 = CC_DESIGN_PERSON_AND_ORGANIZATION_ASSIGNMENT ( #171, #152, ( #4 ) ) ;
#83 = UNCERTAINTY_MEASURE_WITH_UNIT (LENGTH_MEASURE( 1.000000000000000082E-05 ), #215, 'distance_accuracy_value', 'NONE');
#84 = AXIS2_PLACEMENT_3D ( 'NONE', #85, #150, #190 ) ;
#85 = CARTESIAN_POINT ( 'NONE',  ( 1.326762908760390423E-13, -4.653657836759941941E-15, 38.00000000000000000 ) ) ;
#86 = PLANE ( 'NONE',  #87 ) ;
#87 = AXIS2_PLACEMENT_3D ( 'NONE', #168, #148, #217 ) ;
#88 = COORDINATED_UNIVERSAL_TIME_OFFSET ( 1, 0, .AHEAD. ) ;
#89 = VERTEX_POINT ( 'NONE', #15 ) ;
#90 = DIRECTION ( 'NONE',  ( -3.491481338843133355E-15, 1.224646799147353207E-16, -1.000000000000000000 ) ) ;
#91 = CARTESIAN_POINT ( 'NONE',  ( 9.601573681818616727E-15, 1.124819836996387048E-32, 2.750000000000000000 ) ) ;
#92 = PERSON_AND_ORGANIZATION_ROLE ( 'creator' ) ;
#93 = EDGE_CURVE ( 'NONE', #122, #122, #137, .T. ) ;
#94 = ORIENTED_EDGE ( 'NONE', *, *, #138, .T. ) ;
#95 = DATE_AND_TIME ( #56, #43 ) ;
#96 = CARTESIAN_POINT ( 'NONE',  ( 9.601573681818615149E-15, -4.336808689942017736E-16, 2.749999999999999556 ) ) ;
#97 = EDGE_LOOP ( 'NONE', ( #59 ) ) ;
#98 = CC_DESIGN_APPROVAL ( #77, ( #7 ) ) ;
#99 = EDGE_CURVE ( 'NONE', #236, #236, #21, .T. ) ;
#100 = DIRECTION ( 'NONE',  ( 3.491481338843133355E-15, -1.219242935835426903E-16, 1.000000000000000000 ) ) ;
#101 = CARTESIAN_POINT ( 'NONE',  ( 9.601573681818616727E-15, -3.352918073547423982E-16, 2.750000000000000000 ) ) ;
#102 = MANIFOLD_SOLID_BREP ( 'Corps-Déplacer/Copier1[1]', #225 ) ;
#103 = CC_DESIGN_APPROVAL ( #220, ( #4 ) ) ;
#104 = DIRECTION ( 'NONE',  ( 3.491481338843133355E-15, -1.224646799147353207E-16, 1.000000000000000000 ) ) ;
#105 = CARTESIAN_POINT ( 'NONE',  ( -1.964803122974698649E-30, -0.5500000000000001554, -5.627419803497263833E-16 ) ) ;
#106 = CARTESIAN_POINT ( 'NONE',  ( 1.316288464743861212E-13, 1.499999999999992228, 37.69999999999999574 ) ) ;
#107 = CARTESIAN_POINT ( 'NONE',  ( 0.0000000000000000000, 0.0000000000000000000, 0.0000000000000000000 ) ) ;
#108 = AXIS2_PLACEMENT_3D ( 'NONE', #129, #48, #159 ) ;
#109 = APPROVAL_ROLE ( '' ) ;
#110 = DIRECTION ( 'NONE',  ( 0.0000000000000000000, -1.000000000000000000, 0.0000000000000000000 ) ) ;
#111 = FACE_BOUND ( 'NONE', #135, .T. ) ;
#112 = APPROVAL_PERSON_ORGANIZATION ( #203, #216, #109 ) ;
#113 = ADVANCED_FACE ( 'NONE', ( #73, #111 ), #160, .T. ) ;
#114 = ORIENTED_EDGE ( 'NONE', *, *, #154, .T. ) ;
#115 = EDGE_LOOP ( 'NONE', ( #44 ) ) ;
#116 = AXIS2_PLACEMENT_3D ( 'NONE', #96, #3, #155 ) ;
#117 = ADVANCED_FACE ( 'NONE', ( #17, #219 ), #243, .T. ) ;
#118 = EDGE_LOOP ( 'NONE', ( #176 ) ) ;
#119 = CYLINDRICAL_SURFACE ( 'NONE', #232, 0.5499999999999999334 ) ;
#120 = DIRECTION ( 'NONE',  ( 0.0000000000000000000, -1.000000000000000000, 0.0000000000000000000 ) ) ;
#121 = PRODUCT_DEFINITION_FORMATION_WITH_SPECIFIED_SOURCE ( 'ANY', '', #221, .NOT_KNOWN. ) ;
#122 = VERTEX_POINT ( 'NONE', #146 ) ;
#123 = DATE_AND_TIME ( #50, #186 ) ;
#124 = PERSON_AND_ORGANIZATION ( #130, #175 ) ;
#125 = FACE_OUTER_BOUND ( 'NONE', #41, .T. ) ;
#126 = CIRCLE ( 'NONE', #74, 0.5499999999999996003 ) ;
#127 = ADVANCED_FACE ( 'NONE', ( #47, #179 ), #119, .T. ) ;
#128 = APPROVAL_PERSON_ORGANIZATION ( #13, #77, #164 ) ;
#129 = CARTESIAN_POINT ( 'NONE',  ( 2.289976462162493074E-14, -7.996713583026440681E-16, 6.558753262365289771 ) ) ;
#130 = PERSON ( 'UNSPECIFIED', 'UNSPECIFIED', 'UNSPECIFIED', ('UNSPECIFIED'), ('UNSPECIFIED'), ('UNSPECIFIED') ) ;
#131 = CC_DESIGN_PERSON_AND_ORGANIZATION_ASSIGNMENT ( #57, #92, ( #121 ) ) ;
#132 = PERSON_AND_ORGANIZATION ( #130, #175 ) ;
#133 = APPROVAL_DATE_TIME ( #95, #220 ) ;
#134 = ADVANCED_BREP_SHAPE_REPRESENTATION ( '966071', ( #102, #26, #177 ), #34 ) ;
#135 = EDGE_LOOP ( 'NONE', ( #114 ) ) ;
#136 = EDGE_LOOP ( 'NONE', ( #80 ) ) ;
#137 = CIRCLE ( 'NONE', #8, 0.6181483474218602003 ) ;
#138 = EDGE_CURVE ( 'NONE', #169, #169, #166, .T. ) ;
#139 = TOROIDAL_SURFACE ( 'NONE', #116, 2.550000000000000266, 2.000000000000000000 ) ;
#140 = DIRECTION ( 'NONE',  ( -3.491481338843133355E-15, 1.224646799147353207E-16, -1.000000000000000000 ) ) ;
#141 = DESIGN_CONTEXT ( 'detailed design', #33, 'design' ) ;
#142 = CARTESIAN_POINT ( 'NONE',  ( 0.0000000000000000000, 0.0000000000000000000, 0.0000000000000000000 ) ) ;
#143 = CARTESIAN_POINT ( 'NONE',  ( 9.601573681818616727E-15, -0.5499999999999999334, 2.750000000000000000 ) ) ;
#144 = PERSON_AND_ORGANIZATION ( #130, #175 ) ;
#145 = APPROVAL_PERSON_ORGANIZATION ( #18, #220, #224 ) ;
#146 = CARTESIAN_POINT ( 'NONE',  ( 1.140889741404387311E-14, -0.6181483474218606444, 3.267638090205028600 ) ) ;
#147 = CC_DESIGN_PERSON_AND_ORGANIZATION_ASSIGNMENT ( #132, #222, ( #121 ) ) ;
#148 = DIRECTION ( 'NONE',  ( 3.491481338843133355E-15, -1.224646799147353207E-16, 1.000000000000000000 ) ) ;
#149 =( NAMED_UNIT ( * ) PLANE_ANGLE_UNIT ( ) SI_UNIT ( $, .RADIAN. ) );
#150 = DIRECTION ( 'NONE',  ( -3.491481338843133355E-15, 1.224646799147353207E-16, -1.000000000000000000 ) ) ;
#151 = LOCAL_TIME ( 16, 36, 10.00000000000000000, #193 ) ;
#152 = PERSON_AND_ORGANIZATION_ROLE ( 'classification_officer' ) ;
#153 = DATE_AND_TIME ( #206, #195 ) ;
#154 = EDGE_CURVE ( 'NONE', #89, #89, #78, .T. ) ;
#155 = DIRECTION ( 'NONE',  ( -4.315327242388476984E-31, -1.000000000000000000, -1.219242935835426903E-16 ) ) ;
#156 = EDGE_LOOP ( 'NONE', ( #64 ) ) ;
#157 = LOCAL_TIME ( 16, 36, 10.00000000000000000, #88 ) ;
#158 = EDGE_LOOP ( 'NONE', ( #62 ) ) ;
#159 = DIRECTION ( 'NONE',  ( 0.0000000000000000000, -1.000000000000000000, 0.0000000000000000000 ) ) ;
#160 = CONICAL_SURFACE ( 'NONE', #84, 1.199999999999996847, 0.7853981633974453924 ) ;
#161 = DIRECTION ( 'NONE',  ( 0.0000000000000000000, 1.000000000000000000, 0.0000000000000000000 ) ) ;
#162 = CARTESIAN_POINT ( 'NONE',  ( 2.289976462162493074E-14, -1.499999999999995781, 6.558753262365289771 ) ) ;
#163 = ADVANCED_FACE ( 'NONE', ( #212 ), #188, .F. ) ;
#164 = APPROVAL_ROLE ( '' ) ;
#165 = CARTESIAN_POINT ( 'NONE',  ( 9.601573681818616727E-15, -0.5499999999999999334, 2.750000000000000000 ) ) ;
#166 = CIRCLE ( 'NONE', #108, 1.499999999999994893 ) ;
#167 = CALENDAR_DATE ( 2021, 16, 11 ) ;
#168 = CARTESIAN_POINT ( 'NONE',  ( 9.601573681818616727E-15, 1.124819836996387048E-32, 2.750000000000000000 ) ) ;
#169 = VERTEX_POINT ( 'NONE', #162 ) ;
#170 = CARTESIAN_POINT ( 'NONE',  ( -4.275811853558651348E-31, 1.499752910594655314E-32, -1.224641187678636516E-16 ) ) ;
#171 = PERSON_AND_ORGANIZATION ( #130, #175 ) ;
#172 = DIRECTION ( 'NONE',  ( -3.491481338843133355E-15, 1.224646799147353207E-16, -1.000000000000000000 ) ) ;
#173 = CC_DESIGN_SECURITY_CLASSIFICATION ( #4, ( #121 ) ) ;
#174 = EDGE_CURVE ( 'NONE', #72, #72, #53, .T. ) ;
#175 = ORGANIZATION ( 'UNSPECIFIED', 'UNSPECIFIED', '' ) ;
#176 = ORIENTED_EDGE ( 'NONE', *, *, #154, .F. ) ;
#177 = AXIS2_PLACEMENT_3D ( 'NONE', #107, #214, #234 ) ;
#178 = AXIS2_PLACEMENT_3D ( 'NONE', #231, #140, #161 ) ;
#179 = FACE_OUTER_BOUND ( 'NONE', #23, .T. ) ;
#180 = CARTESIAN_POINT ( 'NONE',  ( 1.140889741404387311E-14, -3.984044658349246233E-16, 3.267638090205028600 ) ) ;
#181 = AXIS2_PLACEMENT_3D ( 'NONE', #91, #37, #240 ) ;
#182 = CC_DESIGN_APPROVAL ( #216, ( #121 ) ) ;
#183 = DIRECTION ( 'NONE',  ( -4.275831445896958607E-31, -1.000000000000000000, -1.224646799147353207E-16 ) ) ;
#184 = MECHANICAL_CONTEXT ( 'NONE', #28, 'mechanical' ) ;
#185 = APPROVAL_STATUS ( 'not_yet_approved' ) ;
#186 = LOCAL_TIME ( 16, 36, 10.00000000000000000, #235 ) ;
#187 = COORDINATED_UNIVERSAL_TIME_OFFSET ( 1, 0, .AHEAD. ) ;
#188 = PLANE ( 'NONE',  #46 ) ;
#189 = APPROVAL_STATUS ( 'not_yet_approved' ) ;
#190 = DIRECTION ( 'NONE',  ( 0.0000000000000000000, 1.000000000000000000, 0.0000000000000000000 ) ) ;
#191 = CARTESIAN_POINT ( 'NONE',  ( 1.316288464743861212E-13, -4.616918432785521081E-15, 37.69999999999999574 ) ) ;
#192 = AXIS2_PLACEMENT_3D ( 'NONE', #71, #27, #233 ) ;
#193 = COORDINATED_UNIVERSAL_TIME_OFFSET ( 1, 0, .AHEAD. ) ;
#194 = AXIS2_PLACEMENT_3D ( 'NONE', #65, #25, #49 ) ;
#195 = LOCAL_TIME ( 16, 36, 10.00000000000000000, #187 ) ;
#196 = ORIENTED_EDGE ( 'NONE', *, *, #138, .F. ) ;
#197 = DIRECTION ( 'NONE',  ( 3.491481338843133355E-15, -1.219242935835426903E-16, 1.000000000000000000 ) ) ;
#198 = DIRECTION ( 'NONE',  ( 4.275831445896958607E-31, 1.000000000000000000, 1.224646799147353207E-16 ) ) ;
#199 = PLANE ( 'NONE',  #10 ) ;
#200 = VERTEX_POINT ( 'NONE', #106 ) ;
#201 = DIRECTION ( 'NONE',  ( 0.0000000000000000000, 1.000000000000000000, 0.0000000000000000000 ) ) ;
#202 = ADVANCED_FACE ( 'NONE', ( #67 ), #199, .F. ) ;
#203 = PERSON_AND_ORGANIZATION ( #130, #175 ) ;
#204 = APPLICATION_PROTOCOL_DEFINITION ( 'international standard', 'config_control_design', 1994, #33 ) ;
#205 = SECURITY_CLASSIFICATION_LEVEL ( 'unclassified' ) ;
#206 = CALENDAR_DATE ( 2021, 16, 11 ) ;
#207 = ORIENTED_EDGE ( 'NONE', *, *, #38, .F. ) ;
#208 = ADVANCED_FACE ( 'NONE', ( #12 ), #86, .F. ) ;
#209 = FACE_OUTER_BOUND ( 'NONE', #158, .T. ) ;
#210 = DIRECTION ( 'NONE',  ( 4.275831445896958607E-31, 1.000000000000000000, 1.224646799147353207E-16 ) ) ;
#211 = CLOSED_SHELL ( 'NONE', ( #24, #127, #202 ) ) ;
#212 = FACE_OUTER_BOUND ( 'NONE', #118, .T. ) ;
#213 = DIRECTION ( 'NONE',  ( 0.0000000000000000000, -1.000000000000000000, 0.0000000000000000000 ) ) ;
#214 = DIRECTION ( 'NONE',  ( 0.0000000000000000000, 0.0000000000000000000, 1.000000000000000000 ) ) ;
#215 =( LENGTH_UNIT ( ) NAMED_UNIT ( * ) SI_UNIT ( .MILLI., .METRE. ) );
#216 = APPROVAL ( #35, 'UNSPECIFIED' ) ;
#217 = DIRECTION ( 'NONE',  ( -4.275831445896958607E-31, -1.000000000000000000, -1.224646799147353207E-16 ) ) ;
#218 = APPLICATION_PROTOCOL_DEFINITION ( 'international standard', 'config_control_design', 1994, #28 ) ;
#219 = FACE_OUTER_BOUND ( 'NONE', #223, .T. ) ;
#220 = APPROVAL ( #189, 'UNSPECIFIED' ) ;
#221 = PRODUCT ( '966071', '966071', '', ( #184 ) ) ;
#222 = PERSON_AND_ORGANIZATION_ROLE ( 'design_supplier' ) ;
#223 = EDGE_LOOP ( 'NONE', ( #196 ) ) ;
#224 = APPROVAL_ROLE ( '' ) ;
#225 = CLOSED_SHELL ( 'NONE', ( #117, #113, #163, #55, #226, #208 ) ) ;
#226 = ADVANCED_FACE ( 'NONE', ( #52, #125 ), #139, .F. ) ;
#227 = EDGE_LOOP ( 'NONE', ( #22 ) ) ;
#228 = PRODUCT_RELATED_PRODUCT_CATEGORY ( 'detail', '', ( #221 ) ) ;
#229 = ORIENTED_EDGE ( 'NONE', *, *, #174, .F. ) ;
#230 = EDGE_CURVE ( 'NONE', #200, #200, #61, .T. ) ;
#231 = CARTESIAN_POINT ( 'NONE',  ( 1.326762908760390423E-13, -4.653657836759941941E-15, 38.00000000000000000 ) ) ;
#232 = AXIS2_PLACEMENT_3D ( 'NONE', #81, #29, #237 ) ;
#233 = DIRECTION ( 'NONE',  ( -4.256963957985708013E-31, -1.000000000000000000, -1.219242935835427642E-16 ) ) ;
#234 = DIRECTION ( 'NONE',  ( 1.000000000000000000, 0.0000000000000000000, 0.0000000000000000000 ) ) ;
#235 = COORDINATED_UNIVERSAL_TIME_OFFSET ( 1, 0, .AHEAD. ) ;
#236 = VERTEX_POINT ( 'NONE', #165 ) ;
#237 = DIRECTION ( 'NONE',  ( -4.256963957985708889E-31, -1.000000000000000000, -1.219242935835426903E-16 ) ) ;
#238 = CC_DESIGN_DATE_AND_TIME_ASSIGNMENT ( #42, #40, ( #4 ) ) ;
#239 = DIRECTION ( 'NONE',  ( -3.491481338843133355E-15, 1.224646799147353207E-16, -1.000000000000000000 ) ) ;
#240 = DIRECTION ( 'NONE',  ( -4.275831445896958607E-31, -1.000000000000000000, -1.224646799147353207E-16 ) ) ;
#241 = CALENDAR_DATE ( 2021, 16, 11 ) ;
#242 = AXIS2_PLACEMENT_3D ( 'NONE', #142, #172, #210 ) ;
#243 = CYLINDRICAL_SURFACE ( 'NONE', #242, 1.499999999999994893 ) ;
ENDSEC;
END-ISO-10303-21;
